Até Que a Casa Esteja Cheia

Rodolfo Abrantes

 Rodolfo Abrantes
Tom: E
		
Riff 1:

E|-------------------------------------------------------------|
B|-------------------------------------------------------------|
G|-------------------------------------------------------------|
D|-------------------6--4--2------------------------6--7--9----|
A|---2h4p2---2---2---0--0--0-------2h4p2---2---2----0--0--0----|
E|---0-------4p0-0-----------------0-------4p0-0---------------|


Desse amor, sou mais uma vitima
Ele me têm, desde o primeiro dia
Nosso encontro já se aproxima
Eu posso Te ouvir chamar meu nome

F#m            A9                                 C#m
     Vou me deitar e com os olhos percorrer o caminho do sol
          G#m                                A9
Eu vejo correr como alguém que nunca se cansou
        B9    E
Sim eu quero ser essa peça que funciona
  B9                     A9
Até o Teu sonho se realizar

(Riff 1)

No silencio eu sinto a Tua brisa
E quando penso em Ti Tua mão me acaricia
Vem de dentro, cada cor desse jardim
Desde que a luz nasceu, nada é tão real pra mim

F#m           A9                            C#m
    Vou me deixar levar como uma nuvem pelo vento e ver
           G#m                              A9
A terra passar do alto é simples como deve ser.
        B9    E
Sim eu quero ter um coração ligado ao Teu
        B9                             A9
Pra que onde eu for seja você em meu lugar

                 C#m                   G#m
Que das minhas feridas saia poder pra curar
                  A                                 E
Que cada hora perdida me lembre que não é pra eu parar
                       F#m                     A
Ate que a casa esteja cheia, ate que teu reino venha
                              E          B9    F#m
E cada coisa esteja em seu lugar como o pai sonhou
       A9                      E
Toda a Terra cheia da Sua Glória

(interlúdio, depois volta pro inicio mais parte B)

E|----------------------------------------------------------------10/12----|
B|----5/9-9-9-7-7----5/9-10-10-12-12----5/9-9-9-7-7----5/9-10-10-12--------|
G|-------------------------------------------------------------------------|
D|-------------------------------------------------------------------------|
A|-------------------------------------------------------------------------|
E|-------------------------------------------------------------------------|



    Base E A
E|-----------------------------------------------------------------------|
B|-----------------------------------------------------------------------|
G|-----------------------------------------------------------------------|
D|-------------------6--4--2------------------------6--7--9--------------|
A|---2h4p2---2---2---0--0--0-------2h4p2---2---2----0--0--0--------------|
E|---0-------4p0-0-----------------0-------4p0-0-------------------------|


E            A
Desse amor, sou mais uma vitima
E             A
Ele me têm, desde o  primeiro dia
E              A
Nosso encontro já se aproxima
E              A
Eu posso ouvir chamar meu nome

F#m            A9                                 C#m
     Vou me deitar e com os olhos percorrer o caminho do sol
          G#m                                A9
Eu vejo correr como alguém que nunca se cansou
        B9    E
Sim eu quero ser essa peça que funciona
  B9                     A9
Até o Teu sonho se realizar
(refrão)
Texto Colunas
Alterar tom ½ tom ½ tom
afinação acordes na letra esconder tabs mais »
41.914 exibições

Comentários 9

  • christistherock christistherock: Postado em 13/04/2013 18:26

    só faltou o solinho no final mas ficou boa a cifra...tem ai video aula pra tocar essa musica no violão feita por um carinha no youtube.. bus

  • meiolouco meiolouco: Postado em 03/03/2013 17:14

    solinho final

  • lokchan lokchan: Postado em 26/12/2012 14:14

    Faltou o solo do meio da musica mas mto massa

    • nil_luz nil_luz: Postado em 28/08/2013 18:35

      ta la maninho, o do fianl ainda não consegui tirar..assim que der eu coloco

  • natansm natansm: Postado em 11/11/2012 12:04

    massa

  • DR.GORE DR.GORE: Postado em 24/09/2012 23:33

    obrigado DEUS por essa canção, e pela vida do RODOLFO ABRANTES...suas musicas tem transformado minha vida...obrigado ...obrigado

  • Gilbertinho Gilbertinho: Postado em 08/09/2012 19:11

    tb gostei d primeira essa é muito boa e ja aprendi tb boa pingu xD

  • esparadrapo esparadrapo: Postado em 23/08/2012 18:06

    RODOLFINHO ÉR DEMAIS MEU, ME APAIXONEI NA PRIMEIRA OUVIDA ESSA xD

  • lukas. lukas.: Postado em 11/08/2012 13:03

    Muito bom!! a cifra está bem resumida, vlw pelo post, God Bless

Composição: Sabe quem é o compositor? Envie pra gente. Contribuição: Arlotta Correções: belisao , tomc e mais 2 »
  1. Domingo de Manhã - Marcos e Belutti Manteve-se 101.169 exibições
  2. Maus Bocados - Cristiano Araújo Manteve-se 44.081 exibições
  3. Logo Eu - Jorge e Mateus Manteve-se 42.375 exibições
  4. Recaídas - Henrique e Juliano Manteve-se 41.886 exibições
  5. Pra Você - Onze:20 Manteve-se 39.291 exibições
  6. Não Vai Voltar - Onze:20 Manteve-se 37.554 exibições
  7. Mulher - Projota Manteve-se 30.526 exibições
  8. Só Os Loucos Sabem - Charlie Brown Jr. Manteve-se 30.412 exibições
  9. Calma - Jorge e Mateus Manteve-se 27.299 exibições
  10. Pais e Filhos - Legião Urbana Manteve-se 26.600 exibições
  1. Jorge e Mateus- Manteve-se 283.219 exibições
  2. Legião Urbana- Manteve-se 208.795 exibições
  3. Charlie Brown Jr.- Manteve-se 146.863 exibições
  4. Marcos e Belutti- Manteve-se 124.938 exibições
  5. Fernandinho- Manteve-se 118.407 exibições
  6. Henrique e Juliano- Manteve-se 108.631 exibições
  7. Bruno e Marrone- Manteve-se 102.778 exibições
  8. Onze:20- Manteve-se 98.764 exibições
  9. Luan Santana- Manteve-se 92.109 exibições
  10. Thalles Roberto- Manteve-se 89.741 exibições
Exibir acordes »

Cifras e tabs

Fórum Cifra Club

Aprenda

Cifra Club News

Mais Serviços Cifra Club ID

Studio Sol

©1996 - 2014 Cifra Club · o primeiro, maior e mais acessado do Brasil · 335 mil músicas · 6.1 milhões pessoas cadastradas

publicidade
fechar