Ninguém Por Perto

Rodolfo Abrantes

 Rodolfo Abrantes
Tom: G
		

            G                 D        C       Em                     C    G
E|------------------------------------------------------------------------------|
B|---3--3--x---3----x---7---x---5---x-------------------x-----------------------|
G|---4-----x---4----x---7---x---5---x-------4--2--0-2---x-----0--0--------------|
D|---5-----x---5----x---7---x---5---x---------------2---x-----2-----0-----0p2p0-|
A|---5-----x---5----x-----------------------------------------3-----2-----------|
E|------------------------------------------------------------3-----3-----------|



E|-----------------------------------------------------------------|
B|-----------------------------------------------------------------|
G|-----7-4---11-9--------------------------------------------------|
D|---9-------------9-7-5------5-0----------------------------------|
A|-----------------------7---7-------5-7-5-------------------------|
E|-----------------------------------------------------------------|


( G  D/F#  C  Em  C  G )

G
Momentos de silêncio assim
            D/F#
Ninguém por perto
    C                  Em
Mas uma voz dentro de mim
                        C   G
Me diz que eu não estou só

G
Nesse tempo o meu pensamento
     D/F#          C               Em
Vai ficar ligado com a vontade do pai
E te entender mais
           C
Me faz querer mais a cada dia

G         D/F#
Hoje eu sei o que é deixar
Em               Am
Que o rio de deus me leve
G       D/F#
Desde a fonte ao mar
      Em            Am
Há um rumo pra seguir

G         D/F#
Enquanto eu acreditar
Em           am
O sopro de deus me move
G       D/F#            Em
Se te alegra a minha entrega
             Am
Recebe minha vida hoje

(intro)

G
Em qualquer parte que eu estiver
D/F#            C              Em
A cada passo que eu der vão ficar
                          C
Tuas marcas e não as minhas
        G
Tua luz onde não havia

G
Teu nome, teu sangue, tua dor
D/F#           C
Tuas palavras, tua paz, teu amor
Em
Meu deus, meu salvador
   C                     G
Jesus, meu pão de cada dia

Em  G   A
Fica aqui bem perto de mim
Vem ser uma parte de mim
Completar com aquilo
Que eu sinto mais falta
Me leva pra torre mais alta
Vem incendiar essa casa coberta de gelo
E a fumaça vai pelo ar
Não dá pra fingir que está tudo bem
aqui
Não dá pra por nada no teu lugar
Nada faz o relógio parar, o ponteiro
Não descansa
Só aumenta a distância
Entre o dia da mudança
E as teias de aranha, a noite de manhã
A velhice infância
Eu desisti do plano errado que eu fiz
Ouvi, o alarme avisou
Que a hora chegou, estou de pé
Me revela agora quem sou
Não sabia que era você
Quando ouvi a minha porta bater
Como alguém que acaba de nascer
E vem pra ficar
Contigo deitar e levantar
Estar ao teu lado
Enxuga meu rosto molhado
De tanta saudade e lembrança
Escondi a criança num porta-retrato
quebrado
Então você vem e já está tudo bem
Reconectou-me ao quadro de força
E a falta de cor no meu quadro
Restaurou também
Tudo em ordem, já descansei
Hoje sei que vale o empenho
Pois a tua presença é tudo que tenho

Comentários 5

  • Eduardo Eduardo: Postado em 21/06/2013 17:16

    num tá certa não, alguém corrige ela ai kk'

  • Gabriel Gabriel: Postado em 26/03/2013 00:25

    Meio louco me add ai eu tenho o solo dela certoesse ai ta errado , é bem simples po

  • meiolouco meiolouco: Postado em 05/12/2012 13:16

    video aula por favor é o solinho q me complica vlw

  • white.shark white.shark: Postado em 19/12/2011 12:57

    a musica é otima, mas o sacana que fez a cifra não posso dizer o msmo.

  • DiCkISon DiCkISon: Postado em 14/02/2011 12:54

    Rodolfo Abrantes Servo de Deus continue assim que Deus te abençoe grandemente

Composição: Rodolfo Abrantes
Esse não é o compositor? Avise-nos.
Contribuição: Di!!! Correções: Vinícius , Gabriel e mais 11 »
Exibir acordes »
publicidade
fechar