Rodox

Cego De Jericó

6.405 exibições
                              4x                              
G||-----------------------------|----------------------------||
D||*----------------------------|---------------------------*||
A||*--0-0-----------------------|--22222222-----------------*||
E||----3-3-000------------------|----------------------------||


                                                       
----------------------------------------------------------------------|
----------------------------------------------------------------------|
----------------------------0-0-0-0-0-0-0-0-3-3-3-3-3-0-0-0-0-0-0-0-0 |
--3-3-3-3-3-3-3-3-0-0-0-0-0-------------------------------------------|

----------------------------------------------------------------------------------|
----------------------------------------------------------------------------------|
----------------------------------3-3-3-3-3-3-3-3-3-3-3-0-0-0-0-0-0-3-3-3-3-3-3-3-|
-0-0-0-0-0-0-0-0-0-0-3-3-3-3-3-3-3------------------------------------------------|

                          3x
----------------------------|----------------------------|
----------------------------|----------------------------|
--0-0-----------------------|--0-0-0-0-0-0-0------------*|
---3-3-000------------------|----------------------------|

----------------------------------------------------------------------|
----------------------------------------------------------------------|
----------------------------3-3-3-3-3-0-0-0-0-0-0-0-0-----------------|
--3-3-3-3-3-3-3-3-0-0-0-0-0-------------------------------------------|

----------------------------------------------------------------------|
----------------------------------------------------------------------|
---------------------------------3-3-3-3-3----------------------------|
-0-0-0-0-0-0-0-0-3-3-3-3-3-3-3-3--------------------------------------|

----------------------------------------------------------------------|
----------------------------------------------------------------------|
----------------------------------3-3-3-3-3-3-3-0-0-0-0-0-0-0-0-0-----|
-3-3-3-3-3-3-3-3-0-0-0-0-0-0-0-0-0------------------------------------|

----------------------------------------------------------------------|
----------------------------------------------------------------------|
---------------------------------3-3-3-3-3----------------------------|
-0-0-0-0-0-0-0-0-3-3-3-3-3-3-3-3--------------------------------------|

                            4x                              
|-----------------------------|----------------------------||
|*----------------------------|---------------------------*||
|*--0-0-----------------------|--22222222-----------------*||
|----3-3-000------------------|----------------------------||

----------------------------------------------------------------------|
----------------------------------------------------------------------|
-----------------3-3-3-3-3-3-3-3-3-3-3--------------------------------|
-3-3-3-3-3-3-3-3------------------------------------------------------|

                          3x
----------------------------|----------------------------|
----------------------------|----------------------------|
--0-0-----------------------|--0-0-0-0-0-0-0------------*|
---3-3-000------------------|----------------------------|

----------------------------------------------------------------------|
----------------------------------------------------------------------|
----------------------------------3-3-3-3-3-3-3-0-0-0-0-0-0-0-0-0-----|
-3-3-3-3-3-3-3-3-0-0-0-0-0-0-0-0-0------------------------------------|

----------------------------------------------------------------------|
----------------------------------------------------------------------|
----------------------------------3-3-3-3-3-3-3-3---------------------|
-3-3-3-3-3-3-3-3-0-0-0-0-0-0-0-0-0------------------------------------|

----------------------------------------------------------------------|
----------------------------------------------------------------------|
----------------------------------3-3-3-3-3-3-3-0-0-0-0-0-0-0-0-0-----|
-3-3-3-3-3-3-3-3-0-0-0-0-0-0-0-0-0------------------------------------|

----------------------------------------------------------------------|
----------------------------------------------------------------------|
---------------------------------3-3-3-3-3-3-3-3----------------------|
-0-0-0-0-0-0-0-0-3-3-3-3-3-3-3-3--------------------------------------|

----------------------------------------------------------------------|
----------------------------------------------------------------------|
----------------------------------3-3-3-3-3-3-3-0-0-0-0-0-0-0-0-0-----|
-3-3-3-3-3-3-3-3-0-0-0-0-0-0-0-0-0------------------------------------|

----------------------------------------------------------------------|
----------------------------------------------------------------------|
---------------------------------3-3-3-3-3-3-3-3----------------------|
-0-0-0-0-0-0-0-0-3-3-3-3-3-3-3-3--------------------------------------|

                          2x
----------------------------|
----------------------------|
--0-0-----------------------|
---3-3-000------------------|





Fernando Costa JR.
ffcjr@ig.com.br

_______________________________________________________
Contribuição: Fernando Ferreira Da Costa Junior(ffcjr@ig.com.br)
    Composição: Rodolfo Abrantes

    Comentários 0

    conseguiu tocar?

    Pedro Nascimento134 visualizações
      ver covers de outras músicas »
      0:00 / 0:00

      Capítulos

        1 versão de violãodificuldadeexibiçõescontribuição e correção
        1 versão de guitarradificuldadeexibiçõescontribuição e correção
        1 versão de cavacodificuldadeexibiçõescontribuição e correção
        1 versão de tecladodificuldadeexibiçõescontribuição e correção
        1 versão de baixoexibiçõescontribuição e correção
        play/pausefechar subir/descer velocidade
        6ª corda E5ª corda A4ª corda D3ª corda G2ª corda B1ª corda E
          acordes
          publicidad
          fechar
          ok