Eu Me Rendo

Rodrigo Soeiro

 Rodrigo Soeiro Compositor: Esdras Gallo / Marcio Foffu / Marcelo Aguiar
Tom: D
		
(intro) D D D D G G D

Solo Intro:
Parte 1

E|---5-----5-----5-----5--------10---------10/14~~-----17--14-------------|
B|----7-----7-----7-----7--7/12----12~~ 12----------15--------15--19--15~~|
G|-7-----7-----7-----7----------------------------------------------------|
D|------------------------------------------------------------------------|
A|------------------------------------------------------------------------|
E|------------------------------------------------------------------------|


Parte 2:

E|----------------------------------------------------------------------------------------------|
B|-----10\7--------10\7--------10\7---------10\7----12/-15/-12--12--15--19--15--10--7--15-19-15-|
G|--7----------7-----------7-----------7--------------------------------------------------------|
D|--0---7\4----0----7\4----0----7\4----0----7\4------9/-12/-9----9--12--16--12---7--4--12-16-12-|
A|----------------------------------------------------------------------------------------------|
E|----------------------------------------------------------------------------------------------|


Bm               A
  A Ti eu vou clamar
          D/F#                G
Pois tudo vem de Ti e tudo está em Ti
Bm               A
  Por Ti vou caminhar
        D/F#            G
Tu és a direção o sol a me guiar
Em             A
Tudo pode passar
     Bm      A     G
Teu amor jamais me deixará
Em                A
Sempre há de existir
           Bm        A       G
Um novo amanhã preparado pra mim

(refrão)
       D                A
Eu me rendo aos teus pés
            Bm         G
És tudo que eu preciso pra viver
       D               A
Eu me lanço aos teus braços
        Bm           G
Onde encontro meu refúgio

   Bm   A
Jesus
          D/F#  G  (2x)
Eis - me aqui
Texto Colunas
Alterar tom ½ tom ½ tom
afinação acordes na letra esconder tabs mais »
37.389 exibições

Comentários 1

  • TEODORO TEODORO: Postado em 27/10/2013 15:47

    MUITO LINDO LOUVOR BENÇAO DEUS .

Composição: Sabe quem é o compositor? Envie pra gente. Contribuição: Soeiro Correções: Jonathans , Francisco e mais 2 »
  1. Domingo de Manhã - Marcos e Belutti Manteve-se 101.169 exibições
  2. Maus Bocados - Cristiano Araújo Manteve-se 44.081 exibições
  3. Logo Eu - Jorge e Mateus Manteve-se 42.375 exibições
  4. Recaídas - Henrique e Juliano Manteve-se 41.886 exibições
  5. Pra Você - Onze:20 Manteve-se 39.291 exibições
  6. Não Vai Voltar - Onze:20 Manteve-se 37.554 exibições
  7. Mulher - Projota Manteve-se 30.526 exibições
  8. Só Os Loucos Sabem - Charlie Brown Jr. Manteve-se 30.412 exibições
  9. Calma - Jorge e Mateus Manteve-se 27.299 exibições
  10. Pais e Filhos - Legião Urbana Manteve-se 26.600 exibições
  1. Jorge e Mateus- Manteve-se 283.219 exibições
  2. Legião Urbana- Manteve-se 208.795 exibições
  3. Charlie Brown Jr.- Manteve-se 146.863 exibições
  4. Marcos e Belutti- Manteve-se 124.938 exibições
  5. Fernandinho- Manteve-se 118.407 exibições
  6. Henrique e Juliano- Manteve-se 108.631 exibições
  7. Bruno e Marrone- Manteve-se 102.778 exibições
  8. Onze:20- Manteve-se 98.764 exibições
  9. Luan Santana- Manteve-se 92.109 exibições
  10. Thalles Roberto- Manteve-se 89.741 exibições
Exibir acordes »

Cifras e tabs

Fórum Cifra Club

Aprenda

Cifra Club News

Mais Serviços Cifra Club ID

Studio Sol

©1996 - 2014 Cifra Club · o primeiro, maior e mais acessado do Brasil · 335 mil músicas · 6.1 milhões pessoas cadastradas

publicidade
fechar