Eu Me Rendo

Rodrigo Soeiro

 Rodrigo Soeiro Compositor: Esdras Gallo / Marcio Foffu / Marcelo Aguiar
Tom: D
		
Intro: D  D  D  D  G  G  D

Solo Intro:

Parte 1

E|---5-----------5--------------------------14----------17-14----14-------|
B|----7-----7-----7-----7------15--------15----15----15-------15----15~---|
G|-7-----7-----7-----7----7/16----16--16----------16----------------------|
D|------------------------------------------------------------------------|
A|------------------------------------------------------------------------|
E|------------------------------------------------------------------------|


Parte 2:

E|--------------------------------------------14---10--17--14---10--14--10----------------------|
B|-----10--7-----10--7---12--15--12---12--15----------------------------------------------------|
G|--7---------7-------------------------------11---7---14--11---7---11--7-----------------------|
D|-----7---4------7--4---9---12--9----9---12----------------------------------------------------|
A|--5---------5---------------------------------------------------------------------------------|
E|----------------------------------------------------------------------------------------------|


Bm               A
  A Ti eu vou clamar
          D/F#                G
Pois tudo vem de Ti e tudo está em Ti
Bm               A
  Por Ti vou caminhar
        D/F#            G
Tu és a direção o sol a me guiar
Em             A
Tudo pode passar
     Bm      A     G
Teu amor jamais me deixará
Em                A
Sempre há de existir
           Bm        A       G
Um novo amanhã preparado pra mim

(refrão)
       D                A
Eu me rendo aos teus pés
            Bm         G
És tudo que eu preciso pra viver
       D               A
Eu me lanço aos teus braços
        Bm           G
Onde encontro meu refúgio

   Bm   A
Jesus
          D/F#  G  (2x)
Eis - me aqui
50.734 exibições

Comentários 2

  • isaias isaias: Postado em 31/08/2014 08:03

    Maravilhoso

  • TEODORO TEODORO: Postado em 27/10/2013 15:47

    MUITO LINDO LOUVOR BENÇAO DEUS .

Composição: Sabe quem é o compositor? Envie pra gente. Contribuição: Soeiro Correções: ketlin.fernandes.3 , mcmozao e mais 3 »
Exibir acordes »
publicidade
fechar