Tu és Santo

Ronaldo Bezerra

 Ronaldo Bezerra
Tom: G
		
Solo introdução:

E|-7--7--5--7--8--7--5--7--7--5--7--8--7--5--3--3--2--3--5--3--2--3--2--0------|
B|-------------------------------------------------------------------------3---|
G|-----------------------------------------------------------------------------|
D|-----------------------------------------------------------------------------|
A|-----------------------------------------------------------------------------|
E|-----------------------------------------------------------------------------|


(intro) G   C9 D4 D (2x)

       G
Tu és Santo               ( Tu és santo)
(G/B)C9
Poderoso                  ( Poderoso)
      Am7
Tu és digno               ( Tu és digno)
            D
De todo louvor            ( De todo louvor)
      G
Seguirei                  (Seguirei)
       C9
Teus caminhos             ( Teus caminhos)
      Am7
Te amarei                 ( Te amarei)
   D/F# G                       D/F# G
Pra Sempre                ( Pra sempre)

(primeira coluna)         (segunda coluna)
(homens)                  (mulheres)
(ambos cantando junto ao mesmo tempo no mesmo ritmo)

      C9
e eu canto                ( Tu és o Senhor)
    D
e louvo                   ( O Rei dos reis)
    Em7
 Ao rei que               ( Todo Poderoso )
   Bm7
 É digno                  ( O Senhor da leis )

       C9
e Eu danço                ( Deus .Emanuel|)
      D
 Me prosto                ( O Grande Eu Sou)
    Em7
 Diante                   ( Princípe da Paz)
       Bm7
 De ti                    ( Que Ressucitou)

      C9
e eu canto                ( Venceu na Cruz)
   D
e louvo                   ( Dando Salvação)
    Em7
 Ao rei que               ( Trazendo vida)
   Bm7
 É digno                  ( Paz e Libertação)

     C9
e eu danço                ( És o Alfa e o Ômega)
     D
 Me prostro               ( O Princípio e o fim)
   Em7
 Diante                   ( Salvador e messias)
    A4   A9
 De Ti                    ( Tu és Tudo pra mim)

(todos cantam juntos)

            C9                   D                  G 1º: G C9 D4 D
 Tu és meu Deus de paz, quero viver minha vida  em ti 2º: Coro
                                                      3º: Em7 =>


E|-5--7----5--7--8--7--5-7--5-7--8--7--5---3--3---2------------|
B|-----------------------------------------------------5----3~7|                 |
G|-------------------------------------------------------------|
D|-------------------------------------------------------------|
A|-------------------------------------------------------------|
E|-------------------------------------------------------------|


=> 3º:
           C9                    D
 Tu és meu Deus de paz, quero viver minha vida  em ti

 Em   D/F#  C   (G/B  C)
Ôooo ôooo Uoouu

 Em   D/F#  C   (G/B  C)
Ôooo ôooo Uoouu

 Em   D/F#  C   (G/B  C)
Ôooo ôooo Uoouu

 Em   D/F#  C   (G/B  C  G/B C   D/F# G)
Ôooo ôooo Uoouu


      C9
Tu és o Senhor,
   D
O Rei dos reis,
     Em
Todo poderoso,
     Bm
O Senhor das leis
      C9
Deus Emanuel,
   D
O Grande Eu Sou,
      Em               Bm
Príncipe da paz que ressuscitou
    C                 D
Venceu na cruz dando salvação,
   Em                Bm
Trazendo vida, paz e libertação
     C9
És o Alfa, o Ômega,
    D
Princípio e Fim,
     Em
Salvador, Messias,
      A4        A9
Tu és tudo pra mim


          C9
Tu és meu Deus e Pai
         D
Quero Viver Minha Vida
   G  Em
Em Ti
          C9
Tu és meu Deus e Pai
         D
Quero Viver Minha Vida
   G  Em
Em Ti
          C9
Tu és meu Deus e Pai
         D9
Quero Viver Minha Vida
   C/G  C/E D/F# G9
Em Ti
218.814 exibições

Comentários 1

Composição: Sabe quem é o compositor? Envie pra gente. Contribuição: Murilo Correções: jack.kranynho , Muringa e mais 10 »
Exibir acordes »
publicidade
fechar