Amor Perdido

Rosa de Saron

 Rosa de Saron
Tom: C
		
Intro: (Am F7+	Em G)

Am
Mesmo se eu pudesse o mundo entender
F7+	      Em	G		
Todas as coisas saber
Am
Mesmo que eu falasse pra multidões ouvir
F7+	      Em	  G
E viessem me aplaudir

F	 G
Algo mais teria que me acontecer
F		  G
Um sentimento pra vida eu viver
F		    G
Falasse a língua dos anjos
Doasse tudo o que tenho
    Am	      G	        F  G	 Am	G	F	G
Fizesse o que se faz apenas por fazer

      Am    G	    F        G
Se não tivesse amor de nada valeria
      Am    G	    F       G
Se não tivesse amor valor nenhum teria
      Am    G	      F        G
Se não tivesse amor de nada valeria
      Am    G	   F       G	Am	F7+	Em	G
Se não tivesse amor valor nenhum teria



Am
Mesmo se os ventos parassem ao meu mandar
F7+	 Em	     G
E a natureza eu calasse
Am
Mesmo se a fama estivesse aos meus pés
F7+	      Em	G
E nela eu me apoiasse

F		   G
Algo mais teria que me acontecer
F			  G
Um sentimento pra vida eu viver
F		  G
Falasse a língua dos anjos
Doasse tudo o que tenho
    Am	       G	   F  G	   Am	G	F	G
Fizesse o que se faz apenas por fazer

      Am    G	         F       G
Se não tivesse amor de nada valeria
      Am    G	        F       G
Se não tivesse amor valor nenhum teria
      Am    G	         F       G
Se não tivesse amor de nada valeria
      Am    G	        F       G	Solo: (Am	F	G)
Se não tivesse amor valor nenhum teria

Am			  G
Tudo que se faz se esquece do amor
F			  G
Todos se movem por palavras
Am			    G
Frases roucas que se viu partir
F		   G
Sem o amor o tudo é nada


E|-------------------------------------------------------------------
B|----------------------------------------------------------10-10-10-
G|-------------------------------------------------------------------
D|2-2--2-2--7-7--5-5--4-4--2-2--2------------------------55----------
A|0-0--0-0--5-5--3-3--2-2--0-0--0-3-5-------------555-777------------
E|--------------------------------1-3--555-777-888-------------------



E|-------/10-8-7---------------------------7-7h8p7--7h8p7--7h8p7-----
B|8-10-10--------10-10-8h10p8/5-5h8p5-3--10-------10-----10-----10---
G|-------------------------------------------------------------------
D|-------------------------------------------------------------------
A|-------------------------------------------------------------------
E|-------------------------------------------------------------------



E|7h8p7--7h8p7------------------------------------------------------
B|-----10-----10-8-10-10--------------------------------------------
G|------------------------------------------------------------------
D|------------------------------------------------------------------
A|------------------------------------------------------------------
E|------------------------------------------------------------------

Comentários 1

Exibir acordes »
publicidade
fechar