Chance

Rosa de Saron

 Rosa de Saron
Na intro fica assim 

G------------5----------5---------------
D----------7---7------7---7-------------
A---------7---------7-------------------
E-------5-------3--5---------3----------

Dps q ele começa a cantar fica assim 
G------------5---------5-------------------------5-----
D----------7--7-------7--7--------2-2----3------7--7---
A---------7---------7-------------------------7--------
E-------5-------3--5-------3-----------------5-------3-
NO refrão fica Assim

G--------------------------------------------------------------------------
D--------------------------------------------------------------------------
A-------3--5-7---------------------------3--5-7----------------------------
E-1---3--------1---3---5---5-05--05--1--3-------1---3---5----3/5----3/5----

Levante as mãos....
G--------------------------------------------------------------
D---------------------------------------------------------------
A---------------------------------------------------------------
E----3-3-4-5--1---3---5-53-532---1---3--345--1--3---5-53-532----

Comentários 0

Composição: Eduardo Faro
Esse não é o compositor? Avise-nos.
Contribuição: # Junior # Correções: # Junior # »
publicidade
fechar