Em Espírito e Em Verdade

Rosa de Saron

 Rosa de Saron
Tom: D
		
      D            F#m
Em Espírito, em verdade
       G           Gm6
Te adoramos, te adoramos  (2x)

         G        D9/F#
Rei do reis, e Senhor
         G      A        D
Te entregamos nosso viver
         G        D9/F#
Rei dos reis, e Senhor
         G       A     D D4 D
Te entregamos nosso viver

           G       D         A
Pra te adorar, oh! Rei dos reis,
              G        D    A
foi que eu nasci, oh! rei Jesus,

      F#m          Bm
meu prazer é te louvar;
     F#m       G       A            D
meu prazer é estar nos átrios do senhor.
     F#m       Bm     F#m      G
meu prazer  é viver na casa de Deus,
       A       D    F#m Bm G
onde flui o amor


Solo:  C D9 C D9 B Em E9 C D B D Em D C D G
E|-----------------------------------------------|
B|-----7-7/8--7---7-------7---7/8--7--7----------|
G|-7-9----------7----9--7---9--------------7--9--|
D|-----------------------------------------------|
A|-----------------------------------------------|
E|-----------------------------------------------|



E|-------------------------------------------------------------------------|
B|----7-8-7---------------7--------7--------------7-7---7-10---------------|
G|-7-9-----9-7--7-7-6-7------7-6-7------7-7-6-7-------9-------7-7-6-7-9-7--|
D|----------------------9------------9----------9--------------------------|
A|-------------------------------------------------------------------------|
E|-------------------------------------------------------------------------|

Texto Colunas
Alterar tom ½ tom ½ tom
afinação acordes na letra esconder tabs mais »

Comentários (1)

  • Edu Edu: Postado em 10/06/2012 03:59

    Merece uma vídeo aula , lindíssima também.

Composição: Sabe quem é o compositor? Envie pra gente. Contribuição: David [*na moral*] Correções: Johnny , maninho e mais 11 »
  1. Tudo Que Você Quiser - Luan Santana Manteve-se 4.514 exibições
  2. Lepo Lepo - Psirico Manteve-se 3.281 exibições
  3. Mozão - Lucas Lucco Manteve-se 3.136 exibições
  4. Logo Eu - Jorge e Mateus Manteve-se 2.803 exibições
  5. Gaveta - Fernando e Sorocaba Manteve-se 2.540 exibições
  6. Só Os Loucos Sabem - Charlie Brown Jr. Manteve-se 2.267 exibições
  7. Tempo Perdido - Legião Urbana Manteve-se 1.851 exibições
  8. Pra Você - Onze:20 Manteve-se 1.724 exibições
  9. Na Linha do Tempo - Victor e Leo Manteve-se 1.653 exibições
  10. Só Hoje - Jota Quest Manteve-se 1.617 exibições
  1. Jorge e Mateus- Manteve-se 16.646 exibições
  2. Legião Urbana- Manteve-se 15.215 exibições
  3. Luan Santana- Manteve-se 13.486 exibições
  4. Charlie Brown Jr.- Manteve-se 13.299 exibições
  5. Fernandinho- Manteve-se 11.513 exibições
  6. Aline Barros- Manteve-se 8.513 exibições
  7. Católicas- Manteve-se 8.423 exibições
  8. Thalles Roberto- Manteve-se 8.387 exibições
  9. Victor e Leo- Manteve-se 8.156 exibições
  10. Bruno e Marrone- Manteve-se 7.928 exibições
Exibir acordes »

Cifras e tabs

Fórum Cifra Club

Aprenda

Cifra Club News

Mais Serviços Cifra Club ID

Studio Sol

©1996 - 2014 Cifra Club · o primeiro, maior e mais acessado do Brasil · 329 mil músicas · 5.9 milhões pessoas cadastradas

publicidade
fechar