O Meio e o Fim

Rosa de Saron

 Rosa de Saron
Tom: F
		
Intro: Dm  Bb  F  Gm


E|-------------------------------|
B|-------------------------------|
G|---7^9-10----------------------|   (8x)
D|-----------7^8-10---10-8---8-7-|
A|------------------8------8-----|
E|-------------------------------|


Dm      Bb      F         Gm
 Acabou! Acabou! Hoje é o dia D!
Dm       Bb           F        Gm
Foi isso que você leu no jornal hoje cedo?
Dm      Bb       F    Gm
Tudo bem quando tudo acaba bem
Dm          Bb        F            Gm
Mas se não acabar bem, qual é o fim que se tem?
Bb        Gm                Bb
O medo do fim é o meio e o fim
             Gm
O medo, o fim e um breve recomeço

Refrão:
Dm Bb     F         G   Dm  Bb    F   G        Dm
Até que o sol não brilhe, acenda uma vela na escuridão
   Bb                F             G         Dm    Bb F
Levante a mão, se o fim é bom, também são os meios
    G
Também são os meios

( Dm  Bb  F  Gm )

Dm       Bb        F        Gm
 É o fim!  É o final que você quer saber?
Dm         Bb              F      Gm
Me conte o seu passado, e saberei seu futuro
Dm       Bb            F      Gm
De que vale o ouro se ele não compra a alma?
Dm      Bb           F           Gm
A moral é imoral se não há o bem para o outro

Bb             Gm
Tem medo do fim?
               Bb              Gm
Tem medo do fim porque o seu fim justificou seu meio
Bb           Gm                 Bb
O abrigo enfim, é o início do sim
               Gm
O início do sim é onde Deus se encontra

Refrão:
Dm Bb     F         G   Dm  Bb    F   G        Dm
Até que o sol não brilhe, acenda uma vela na escuridão
   Bb                F             G         Dm    Bb F
Levante a mão, se o fim é bom, também são os meios
    G
Também são os meios

Dm                          F                 Gm              Dm
A memória contará a história de quem teve decência na história
              Bb               Dm
 Deixe sua mensagem após o sinal...

Solo:

E|--13-13-13---8-8-8--10-10-10---5-5-5--8-8--5-5---------|
B|-------------------------------------------------------|
G|-------------------------------------------------------|
D|-------------------------------------------------------|
A|-------------------------------------------------------|
E|-------------------------------------------------------|
                                                                    (2x)


E|--13-13-13---8-8-8--10-10-10---5-5-5--8~~--------------|
B|-------------------------------------------------------|
G|-------------------------------------------------------|
D|-------------------------------------------------------|
A|-------------------------------------------------------|
E|-------------------------------------------------------|



E|-----------------------------------------------------------------------------------------|
B|-----------------------------------------------------------------------------------------|
G|--5--7-7--5-7--5-5--5--7-7--5-7--5-5--5--7-7--5-7--5-5--10-10--9-9--7/5------------------|        (2x)
D|-----------------------------------------------------------------------------------------|
A|-----------------------------------------------------------------------------------------|
E|-----------------------------------------------------------------------------------------|
Texto Colunas
Alterar tom ½ tom ½ tom
afinação acordes na letra esconder tabs mais »
27.901 exibições

Comentários (9)

  • Bruno Bruno: Postado em 09/01/2014 23:23

    só me ferrei pra cantar kkk sou mei ruim no vocal...se alguém puder da uma dica

  • Cadu Cadu: Postado em 18/12/2013 11:40

    a musica o sol da meia noite ta com um solo muito bom do show latitude e longitude,vcs poderiam fazer uma video aula dela ow pelo menos mand

  • vito vito: Postado em 18/11/2013 15:23

    ta faltando coisa :S

  • Lucas Lucas: Postado em 18/09/2013 14:02

    Vamos ver se essa tá certo !!!

  • Alex Alex: Postado em 17/08/2013 16:55

    facil

  • all3x all3x: Postado em 12/02/2013 23:21

    Perfeita! :D

  • miqueias.silva miqueias.silva: Postado em 09/10/2012 15:05

    Muito show!!

  • supperleo supperleo: Postado em 28/09/2012 23:21

    perfeita canção !!

  • eduquadros eduquadros: Postado em 02/07/2012 00:05

    Show!

Composição: Guilherme de Sá
Esse não é o compositor? Avise-nos.
Contribuição: davigadelha Correções: Gallegão e mais 2 »
  1. Tudo Que Você Quiser - Luan Santana Manteve-se 6.122 exibições
  2. Lepo Lepo - Psirico Manteve-se 4.394 exibições
  3. Mozão - Lucas Lucco Manteve-se 4.201 exibições
  4. Logo Eu - Jorge e Mateus Manteve-se 4.020 exibições
  5. Pra Você - Onze:20 Manteve-se 4.019 exibições
  6. Gaveta - Fernando e Sorocaba Manteve-se 3.769 exibições
  7. Só Os Loucos Sabem - Charlie Brown Jr. Manteve-se 3.071 exibições
  8. Tempo Perdido - Legião Urbana Manteve-se 2.714 exibições
  9. Fui Fiel - Gusttavo Lima Manteve-se 2.713 exibições
  10. Domingo de Manha - Marcos e Belutti Manteve-se 2.289 exibições
  1. Jorge e Mateus- Manteve-se 23.884 exibições
  2. Legião Urbana- Manteve-se 21.696 exibições
  3. Luan Santana- Manteve-se 17.411 exibições
  4. Charlie Brown Jr.- Manteve-se 17.352 exibições
  5. Fernandinho- Manteve-se 14.841 exibições
  6. Católicas- Manteve-se 11.201 exibições
  7. Thalles Roberto- Manteve-se 11.085 exibições
  8. Gusttavo Lima- Manteve-se 11.009 exibições
  9. Victor e Leo- Manteve-se 10.721 exibições
  10. Bruno e Marrone- Manteve-se 10.310 exibições
Exibir acordes »

Cifras e tabs

Fórum Cifra Club

Aprenda

Cifra Club News

Mais Serviços Cifra Club ID

Studio Sol

©1996 - 2014 Cifra Club · o primeiro, maior e mais acessado do Brasil · 329 mil músicas · 6.0 milhões pessoas cadastradas

publicidade
fechar