Perto, Longe Ou Depois

Rosa de Saron

 Rosa de Saron Compositor: Guilherme de Sá
Tom: E
		

Intro: B  G#m  A  C#m  E
E|---12-12-12--12/11-|-11-11--11/9-|-9-9--9/7--7-7----|
B|---x--x--x----x/x--|-x--x----x/x-|-x-x--x/x--x-x----|
G|---9--9--9----9/8--|-8--8----8/6-|-6-6--6/4--4-4----|
D|-------------------|-------------|------------------|
A|-------------------|-------------|------------------|
E|-------------------|-------------|------------------|



E|---14-14-14--14/12-|-12-12--12/11-|-11-11--11/9-|-9---9/7--7--|
B|----x--x--x---x/x--|-x--x----x/x--|-x--x----x/x-|-x---x/x--x--|
G|---11-11-11--11/9--|-9--9----9/8--|-8--8----8/6-|-6---6/4--4--|
D|-------------------|--------------|-------------|-------------|
A|-------------------|--------------|-------------|-------------|
E|-------------------|--------------|-------------|-------------|



E|----7---7---7----7---5---5---5--|
B|--5---5---5---5----5---5---5----|
G|--------------------------------|
D|--------------------------------|
A|--------------------------------|
E|--------------------------------|


C#m                    E             F#m
Hoje amanheceu tão cinza quando acordei
C#m                 E F#m
Liguei a Tv e as luzes
C#m                 E            F#m
Episódios se repetem, eu preciso ter
C#m                       E     F#m
alguns extras nessa vida sem cor
C#m                          G#m
Os fantasmas e os heróis querem aparecer
D#7                E
Peço, me ajude a levantar,

eu errei

  B                  F#m
Só quero saber de alguém
                      A
Que me mostre o grande amor
         C#m         E
que eu quero   alcançar
  B               F#m
E se tentar seguir além
                 A           C#m        E
perto, longe ou depois Hoje eu vou procurar

Solo: C#m  E  F#m

C#m                     E               F#m
Penso onde vou prender os anjos que aqui vem
C#m                      E  F#m
Tranco mesmo e jogo as chaves
C#m                             E  F#m
Porque se antes eu errei tentando quase ser alguém
C#m                      E  F#m
Agora ao menos quero acertar
C#m            G#m
A vida é filme, sempre tem alguém
D#7                       E
Querem prender não vão me encontrar

Fui além

B                  F#m
Só quero saber de alguém
                      A
Que me mostre o grande amor
         C#m       E
que eu quero   alcançar
  B               F#m
E se tentar seguir além
                 A           C#m     E
perto, longe ou depois Hoje eu vou procurar

(Intro 2x)

C#m                     E               F#m
Folhas na calçada dizem: Perto está o fim
C#m                    E F#m
Onde leis, espaços falhos
C#m                     E               F#m
E enquanto todos correm, procurando um álibi
C#m                     E   F#m
Eu procuro apenas um pouco de paz

B                  F#m
Só quero saber de alguém
                      A
Que me mostre o grande amor
         C#m         E
que eu quero   alcançar
  B               F#m
E se tentar seguir além
                 A           C#m      E
perto, longe ou depois Hoje eu vou procurar

Solo: B  F#m  A  C#m  E

Comentários 1

  • Rene Rene: Postado em 20/11/2014 11:37

    Cara coloca F# no lugar de F#m (y)

Composição: Sabe quem é o compositor? Envie pra gente. Contribuição: raulseixas Correções: Lucas »
Exibir acordes »
publicidade
fechar