Uma trilha sem dor

Rosa de Saron

 Rosa de Saron
Tom: E
		
(intro)


E|-------7----7----7----7----7---7---7----7------
B|----5----5----4----4----5----5--4----4---------
G|-----------------------------------------------
D|-----------------------------------------------
A|-----------------------------------------------
E|-----------------------------------------------


E  B9  C#m             A9        E
Me vi sair, trancado estava o porão


E|-------------------
B|-------0-----------
G|------2--2---------
D|----2------2-------
A|--0----------0-----
E|-------------------


  B9       C#m     A9        E
Já posso ouvir uma trilha sem dor
       B9    C#m          A9        E
As paixões enfim nos seus átrios deixei
     B9         C#m     A9       C#m
E sorri  pois senti um amor sem igual
            A                        E
Como uma canção, composta em meu coração
                B         C#m
Pode te transmitir toda verdade
                 A
Do que sinto por você

      E            B
Alma veja perceba sinta-se
     E  B             C#m   A  G#m  F#m E
Imortaaaaal      heieiê  iêê
                      B
Imortaaal, imortal em ti
          C#m             A  G#m F#m G D A E
imortal em ti, imortal em ti


E|---------0-----------------------------------------
B|---------------------------------------------------
G|-----9-------9-------------------------------------
D|---9---9---9---9----------------------------------- (3x)
A|-7-------------------------------------------------
E|---------------------------------------------------



E|--------0--
B|-----------
G|------9----
D|----9------
A|--7--------
E|-----------


E   B9     C#m           A9        E
Um acorde ouvi enquanto abria o portão
      B9  C#m      A9         E
Campos corri em busca de uma flor
         B9        C#m  A9   E
Como um anjo que habita o jardim
      B9         C#m    A9       C#m
Eu sorri pois senti um amor sem igual
              A9                      E
E com essa canção composta em meu coração
                B           C#m
Quero te transmitir toda verdade
                 A
Do que sinto por você

     E             B
Alma veja perceba sinta-se
     E                B
Imortaaal, imortal em ti
          C#m             A
imortal em ti, imortal em ti

Na hora que você ouvir um som de slide você deve fazer isso:


E|-----------------
B|---7/9-7-5-------
G|-----------------
D|-----------------
A|-----------------
E|-----------------

Comentários 1

  • headmaster headmaster: Postado em 12/09/2012 15:40

    Linda canção! *--*

Composição: Guilherme de Sá / Rogério Feltrin
Esse não é o compositor? Avise-nos.
Contribuição: Re Correções: Jr e mais 2 »
Exibir acordes »
publicidade
fechar