Rosa de Saron

Meu Abandono

354.632 exibições
Tom: G
Intro 4x: Em7  D4  C9  G

                      C9     G
E|------x--------x---------x---------------
B|---8--x--7-----x----3-5--x-3--------0----
G|---0--x-----0--x-0---------0----0h2------
D|------------------------------0----------
A|-7-------5----------3--------------------
E|---------------------------3-------------


                      C9        G
E|------x--------x------------x------------
B|---8--x--7-----x----3h5-3h5-x-3----------
G|---0--x-----0--x-0------------0----0-----
D|---------------------------------0---0---
A|-7-------5----------3---3----------------
E|------------------------------3----------


                      C9        G
E|------x--------x------------x------------
B|---8--x--7-----x----3h5-3h5-x-3----------
G|---0--x-----0--x-0------------0----------
D|------------------------------0----------
A|-7-------5----------3---3----------------
E|------------------------------3----------


Primeira parte:
          G            C9
Um dois três testando, hei alô som,
   Em7           C9
Você é tudo pra mim
    G            C9
Às vezes fico assim um pouco bobo
         Em7             C9
Mas não ligo, é tudo pra mim

   G                C9
E|-----------------------------------------
B|----3-x-3---3-x-3---3-x-3---3-x-3--------
G|----0-x-0---0-x-0---0-x-0---0-x-0--------
D|-----------------------------------------
A|------------------3-------3--------------
E|-3--------3------------------------------


   Em7             C9
E|-----------------------------------------
B|----3-x-3---3-x-3---3-x-3---3-x-3--------
G|----0-x-0---0-x-0---0-x-0---0-x-0--------
D|-2--------2------------------------------
A|------------------3-----3----------------
E|-----------------------------------------


Refrão:
 C9  D4
Tu__do...
 G/B Em7
Tu__do...
 C9  D4         G  G/B C9
Tu__do... para mim
Refrão:

   C9               D4(5)
E|----0-x-0---0---0---2-x-2---3---3--------
B|----3-x-3---3-x-3---3-x-3---3-x-3--------
G|--------------x---------------x----------
D|------------------0-----0----------------
A|-3------3--------------------------------
E|-----------------------------------------


   G/B              Em7
E|----2-x-2---2-x-2-----x-------x----------
B|----3-x-3---3-x-3---3-x-3---3-x-3--------
G|------x-------x-----0-x-0---0-x-0--------
D|-----------------------------------------
A|-2------2--------------------------------
E|------------------0-----0----------------


   C9               D4(5)
E|----0-x-0---0---0---0-x-2---3-x-3--------
B|----3-x-3---3-x-3---3-x-3---3-x-3--------
G|------x-------x-------x-------x----------
D|------------------0-----0----------------
A|-3------3--------------------------------
E|-----------------------------------------


   G      G/B     C9
E|------------0----------------------------
B|----3-x-3-----x-3------------------------
G|----0-x-0-----x-0------------------------
D|------x-------x--------------------------
A|--------2-------3------------------------
E|-3---------------------------------------


G               C9
Algo simples, quero algo simples
         Em7               C9
Como os versos que um dia fiz
       G                 C9
Que o vento espalhou e trouxe o seu sorriso
        Em7              C9
Num jardim tão perto de mim

(Repete refrão com variação)
 C9  D4
Tu__do...
 G/B Em7
Tu__do...
        C9  D4             Em7
Você é Tu__do.. tudo para mim, e isso basta!

        C9  D4
Você é Tu__do...
 G/B Em7
Tu__do..
 C9  D4
Tu__do.. para mim

Segunda parte:
G       D4    G/B      C9     Em7
  Eu desabo quando me calo você,
               C9
É meu abandono    é tudo o que eu tenho
G       D4    G/B      C9     Em7
  Eu desabo quando me calo você,
               C9    D4
É meu abandono    é tudo o que eu tenho
Segunda parte:

   G       D4(5)     G/B      C9
E|---3-----2--3--x---2-----3--2-----3---2--
B|---3--x--3--3--x---3--x--3--3--x--3-X-3--
G|------x--------x------x--------x----X----
D|---------0-------------------------------
A|-------------------2--------3------------
E|-3---------------------------------------


   Em7              C9
E|----------------------------------------
B|----3-x-3---3-x-3---3-x-3---3-x-3-------
G|----0-x-0---0-x-0---0-x-0---0-x-0-------
D|----------------------------------------
A|------------------3-----3---------------
E|-0------0-------------------------------


   Em7              C9
E|----------------------------------------
B|----3-x-3---3-x-3-3---------------------
G|----0-x-0---0-x-0-0---------------------
D|----------------------------------------
A|------------------3---------------------
E|-0------0-------------------------------


( Em7  D4  C9  G ) (4x)

G            C9
Cores novas, sobrepondo sombras,
       Em7         C9
Foram tatuadas em mim.
      G                      C9
Uma flor, um castelo, uma escada que me leve até
             Em7                C9
Onde você está, lá me ame e eu sinta..

Refrão:
 C9  D4
Tu__do...
 G/B Em7
Tu__do...

 C9  D4
Tu__do.. tudo para mim

(Segunda parte)

( C9  G  D4  A4(7) ) (2x)
( C9  G  D4 )

 C9  D4
Tu__do...
 G/B Em7
Tu__do...

 C9  D4                Em7  D4  C9  G
Tu__do... tudo para mim

 Em7 C9 D4
Tu_____do...
 G/B Em7
Tu__do...

 C9  D4
Tu__do.. tudo para mim

( Em7  D4  C9  G ) (4x)
Terceira parte:

   C9     G       D4(5)   A4(7)
E|----3---3---3---3---2---0----------------
B|----3-x-3---3-x-3---3-x-3--3-x-3---------
G|------x-------x-------x----0-x-0---------
D|----------------0------------------------
A|-3----------------------0----------------
E|--------3--------------------------------


   C9         G   D5
E|----------------5---5---5/7--------------
B|----3-x-3---3-x-3---3-x-3/5---5----------
G|----0-x-0---0-x-0---2-x-2/4-x------------
D|----------------0-----x------------------
A|-3---------------------------------------
E|----------3------------------------------

    Sabe quem é o compositor? Envie pra gente.Colaboração e revisão:
    • Caroline
    • werika_matos
    • Gladyston
    • luccas_oliveira
    • +14

    Comentários 60

    • quinho quinho: Postado em 05/04/2015 20:34

      olha amigo você toca demais,adorei

    • Natanael Natanael: Postado em 22/11/2014 13:32

      nss show musica muito linda l !

    • Gabriel Gabriel: Postado em 17/05/2014 08:52

      Muito boa a música, mas faltou cantar a terceira parte no video

    • Denilson Denilson: Postado em 26/02/2014 15:47

      música mt boa. se dedicando aprende ela rápido.

    • samuel samuel: Postado em 13/02/2014 17:27

      mto bom msm

    • Rosa Rosa: Postado em 24/12/2013 17:16

      Por favor ñ cante mais....
      Só toque msm :D

    • Jean Jean: Postado em 12/12/2013 11:55

      Macaquinho Tarsius como cantor é um ótimo instrumentista... rs

    • AndreMenezes11 AndreMenezes11: Postado em 14/08/2013 22:16

      As musicas mais faceis eles fazem video aula,
      essa nem precisava, tirei de ouvido.

    • filipe.brytto filipe.brytto: Postado em 13/08/2013 16:29

      não entendi o final da segunda parte do refrão já passando pra terceira parte!

    Exibindo 10 de 60 comentários Mostrar mais ver todos »

    conseguiu tocar?

    • italo
    • Jonathan
    • Gabriel
    • Mateus
    • Natanael
    • mateus.moraes.77770
    • alan.leme.90
    • •••
    david cavalcante260 visualizações
      ver covers de outras músicas »
      0:00 / 0:00

      Capítulos

        2 versões de violãodificuldadeexibiçõescontribuição e correção
        2 versões de guitarradificuldadeexibiçõescontribuição e correção
        2 versões de cavacodificuldadeexibiçõescontribuição e correção
        2 versões de tecladodificuldadeexibiçõescontribuição e correção
        1 versão de partiturasformatodownloadscontribuição
        play/pausefechar subir/descer velocidade
        6ª corda E5ª corda A4ª corda D3ª corda G2ª corda B1ª corda E
          acordes
          publicidad
          fechar
          ok