Cool Cody

Rose Hill Drive

Sem foto do Rose Hill Drive
Tom: A
		
worked it all out apart from the solo, any suggestions then let me know, but should be on soon...enjoy

(drums 4 bar intro)

riff 1


e--------------------------------------------------------------------------|
B--------------------------------------------------------------------------|
G--------------------------------------------------------------------------|
D--------------------------------------------------------------------------|
A----------3^(1/4)-p0---------------------------3^(1/4)-p0-----------------|
D-0--h3--h5----------0--0--0--0--0--0--0--h3--h5----------0--0--0--0--0--0-|



e-------------------------------------------------------------------------|
B-------------------------------------------------------------------------|
G-------------------------------------------------------------------------|
D-------------------------------------------------------------------------|
A----------3^(1/4)-p0---------------------------3^(1/4)-----------5^(1/4)-|
D-0--h3--h5----------0--0--0--0--0--0--0--h3--h5--------0--h3--h5---------|




e-------------------------------------------------------------------------|
B-------------------------------------------------------------------------|
G-------------------------------------------------------------------------|
D-------------------------------------------------------------------------|
A----------3^(1/4)----------5^(1/4)-----------3^(1/4)-p0------------------|
D-0--h3--h5--------0--h3--h5--------0--h3--h5-----------0--0--0--0--0--0--|



e-------------------------------------------------------------------------|
B-------------------------------------------------------------------------|
G-------------------------------------------------------------------------|
D-------------------------------------------------------------------------|
A----------3^(1/4)-p0---------------------------3^(1/4)-----------5^(1/4)-|
D-0--h3--h5----------0--0--0--0--0--0--0--h3--h5--------0--h3--h5---------|




e-----------------------------------|
B-----------------------------------|
G-----------------------------------|
D-----------------------------------|
A----------3^(1/4)----------5^(1/4)-|
D-0--h3--h5--------0--h3--h5--------|


riff 2


e------------------------------------------------------------------|
B------------------------------------------------------------------|
G------------------------------------------------------------------|
D------------------------------------------------------------------|
A-5//6--5--3//5--5//6--5--3//5--5//6--5--3//5b(1/4)--0~~~----------|
D-5//6--5--3//5--5//6--5--3//5--5//6--5--3//5b(1/4)--0~~~----------|



e-------------------------------------------------------------------|
B-------------------------------------------------------------------|
G-------------------------------------------------------------------|
D-------------------------------------------------------------------|
A-5//6--5--3//5--5//6--5--3//5--5//6--5--3//5b(1/4)--0~~~~~~~~~~~~~-|
D-5//6--5--3//5--5//6--5--3//5--5//6--5--3//5b(1/4)--0~~~~~~~~~~~~~-|


riff 3


e------------------------------------------------------------------|
B------------------------------------------------------------------|
G-4--4--4--4-------------------------------------------------------|
D-4--4--4--4---5--5--5--5---4--4--4--4---2--2--2--2----------------|
A-2--2--2--2---5--5--5--5---4--4--4--4---2--2--2--2----------------|
D--------------5--5--5--5---4--4--4--4---2--2--2--2----------------|



e------------------------------------------------------------------|
B------------------------------------------------------------------|
G-4--4--4--4-------------------------------------------------------|
D-4--4--4--4---5--5--5--5---4--4--4--4---2--2--2--2----------------|
A-2--2--2--2---5--5--5--5---4--4--4--4---2--2--2--2----------------|
D--------------5--5--5--5---4--4--4--4---2--2--2--2----------------|



riff 4


e-------------------------------------------------------------|
B-10~~~~~-10~~~~~~~~~~~~~10--12--13~~~~~~~~~~~~~~~~~~~~~~-----|
G-12b(14)-12b(14)~~~~~~~~-------------------------------------|
D-------------------------------------------------------------|
A-------------------------------------------------------------|
D-------------------------------------------------------------|



e--------------------------------------------------------|
B-13~~13~~13--12--10~~~~~--8~~~~~~--6~~~~~--5~~~~--3~~~--|
G-----------------12b(14)--10b(12)--8b(10)--7b(9)--5b(7)-|
D--------------------------------------------------------|
A--------------------------------------------------------|
D--------------------------------------------------------|


lyrics

verse 1: riff 1
cool cody with the knife in the kitchen,
mothers pride,
cool cody with his razor itchin,
deep inside

interlude: riff 2
it dont make you a man,
it dont make you a man

(riff 4)

verse 2: riff 1
cool cody with the knife in the kitchen,
hunting me,
cool cody with his razor itchin,
no man sleeps,

interlude: riff 2
it dont make you a man,
it dont make you a man

chorus:riff 3
does it take mothers milk,
mabye a look, and squeeze tighter,
does she sleep a night 'coz hes a little,
prize fighter

(riff 4)

verse 3:
cool cody with the knife in the kitchen,
hunting me,
cool cody with his razor itchin,
no man sleeps,

interlude:
it dont make you a man,
it dont make you a man

verse 4:
does it take mothers milk,
mabye a look, and squeeze tighter,
does she sleep a night 'coz hes a little,
prize fighter

solo (working on but noddle in D blues pentatonic hits the spot)

verse 5:
does it take mothers milk,
mabye a look, and squeeze tighter,
does she sleep a night 'coz hes a little,
prize fighter

'ohhh' (finish)
227 exibições

Comentários 0

Consegui tocarAinda não conseguiram tocar essa música. Seja o primeiro!
    Não consegui tocar
    Exibir acordes »
    publicidade
    fechar