Começo, Meio e Fim

Roupa Nova

 Roupa Nova
Tom: E
		
Intro: A  E/G#  F#m  B
Solo:

E|-7-5-12--------------4--5--------------|    (2x)
B|---------7-5-12--5-7------7--2-5-4-2-0-|
G|---------------------------------------|
D|---------------------------------------|
A|---------------------------------------|
E|---------------------------------------|



E|-------12-------------------------------------|
B|-12-10----------12-------9-10-----------------|  (2x)
G|-----------11-9-----9-11------11-----9-8------|
D|----------------------------------11-----11-9-|
A|----------------------------------------------|
E|----------------------------------------------|


     E9        Am6/E
A vida tem sons, que pra gente ouvir
  E9                   D/E
Precisa entender que um amor de verdade
   A         B/A    G#m7          C#m7
É feito canção, qualquer coisa assim
    F#sus4      F#       Bsus4    B
Que tem seu começo, seu meio seu fim
 E9             Am6/E
A vida tem sons, que pra gente ouvir
  E9             D/E
Precisa aprender a começar de novo
A     B/A     G#m7   C#m7   F#sus4    F#
É como tocar o mesmo violão e nele compor
    Am7   C/D  D       G
Uma nova canção........Que fale de amor
     F/G      C/G                      Bsus4    B Bsus4    B
Que faça chorar..Que toque mais forte esse meu coração

 A    E/G#         F#m7       A/B   D/E
Ah !  Coração se apronta pra recomeçar
A7+  E/G#    F#sus4      F#         A/B    B
Ah! Coração Esquece esse medo de amar de novo

(repete tudo)

 A    E/G#         F#m7       A/B   D/E
Ah !  Coração se apronta pra recomeçar
A7+  E/G#    F#sus4      F#         A/B    B
Ah! Coração Esquece esse medo de amar de novo

( A E/G# F#m B )

 A    E/G#         F#m7       A/B   D/E
Ah !  Coração se apronta pra recomeçar
A7+  E/G#    F#sus4      F#         A/B    B
Ah! Coração Esquece esse medo de amar de novo
196.630 exibições

Comentários 0

Composição: Savan Kotecha
Esse não é o compositor? Avise-nos.
Contribuição: PaulinhoRN Correções: gabrielfs »
Exibir acordes »
publicidade
fechar