Pretty Woman

Roy Orbison

 Roy Orbison
Tom: G
		
(intro) E E7
(riff 1)

E|----------------------------------------|
A|----------------------------------------|
D|----------------------------------------|
G|----------------------------------------|
B|-------2--5------------2--5-------------|
E|--0-0-4----------0-0-4------------------|


(riff 2)

E|----------------------------------------|
A|----------------------------------------|
D|----------------------------------------|    (4x)
G|------------4-2-0-----------------------|
B|--------2-5-----------------------------|
E|--0-0-4---------------------------------|


          A             F#m
Pretty woman, walking down the street,
          A                   F#m                  D
pretty woman, the kind I'd like to meet, pretty woman.
             E
I don't believe you, you're not the truth, no one could look as good as you.

(riff 2)

E|----------------------------------------|
A|----------------------------------------|
D|----------------------------------------|    (3x)
G|------------4-2-0-----------------------|
B|--------2-5-----------------------------|
E|--0-0-4---------------------------------|


(Mersey!)

        A                F#m
Pretty woman, won't you pardon me,
        A                 F#m
pretty woman, I couldn't help but see,
        D                    E
pretty woman, that you look lovely as can be,
                         E
are you lonely just like me.

(riff 2)


E|----------------------------------------|
A|----------------------------------------|
D|----------------------------------------|    (1x)
G|------------4-2-0-----------------------|
B|--------2-5-----------------------------|
E|--0-0-4---------------------------------|


(Rrrowrr)

Dm                   G           C                Am
    Pretty woman, stop a while,    pretty woman, talk a while,
Dm                 G                  C
    pretty woman give your smile to me.
Dm                  G               C              Am
    Pretty woman, yeah yeah yeah,    pretty woman look my way,
Dm                 G                   C    A
    pretty woman say you'll stay with me.

           F#m       D                  E
'Cause I need you,     I'll treat you right.
A                F#m    D            E
 Come with me baby,     be mine tonight.

(riff 2)

E|----------------------------------------|
A|----------------------------------------|
D|----------------------------------------|    (1x)
G|------------4-2-0-----------------------|
B|--------2-5-----------------------------|
E|--0-0-4---------------------------------|


        A           F#m
Pretty woman, don't walk on by,
        A           F#m
pretty woman, don't make me cry,
        D              E
pretty woman.   Don't walk away, hey.
 E                 E
OK.      If that's the way it must be, OK.
              E
I guess I'll go on home, it's late,
               E
there'll be tomorrow night, but wait !
              E
What do I see ?

        (riff 1)  (riff 2)


E|----------------------------------------|
A|----------------------------------------|
D|----------------------------------------|
G|----------------------------------------|
B|-------2--5------------2--5-------------|
E|--0-0-4----------0-0-4------------------|


(riff 2)

E|----------------------------------------|
A|----------------------------------------|
D|----------------------------------------|    (6x)
G|------------4-2-0-----------------------|
B|--------2-5-----------------------------|
E|--0-0-4---------------------------------|


Is she walking back to me,

Yes,

she's walking back to me.
 E   E7      E      E7           A
Oh,          woh,         pretty woman.

Comentários 16

  • Iago Iago: Postado em 03/05/2014 11:48

    (Riff 2)
    D--------------4-2--0-
    B---------2-5----------
    E--0-0-4---------------
    ae vc repete de novo

  • tiotoicim tiotoicim: Postado em 03/11/2013 18:55

    Único erro no Riff 2 é que não se toca esse último 2. Está dizendo para tocar o 5 na corda D, mas eu acho mais fácil tocar a corda G solta.

  • sofia.pedroso.58 sofia.pedroso.58: Postado em 30/09/2013 13:56

    até que é fácil. eu só me perco um pouquinho ali na riff 2 mas só treina um pouco que eu domino :)

  • slayer2596 slayer2596: Postado em 16/09/2013 22:49

    Que graçada essa música HUEHUE

  • matheusalonso19 matheusalonso19: Postado em 09/08/2013 19:58

    video aula !!

  • robegui robegui: Postado em 17/02/2013 22:07

    very nice...

  • afdrum afdrum: Postado em 07/01/2013 20:05

    eu não sei tocar violão eu toco + bateria esses acordes estao faceis nessa
    musica ate que levo + ou - tocando violão nos acordes faceis

  • afdrum afdrum: Postado em 07/01/2013 20:01

    na boa essa esta facil demais vou até fazer um video cover no violão eu escutei a musica orginal a base a intro pra mim ta igual toco de boa

  • gabi_cps gabi_cps: Postado em 21/02/2012 08:16

    Alguém pode passar a batida???

  • pedrinhogalvao pedrinhogalvao: Postado em 18/02/2012 10:52

    o ultimo riff simplifica é assim 60 60 64 52 55 44 42 40

    • luiz luiz: Postado em 19/06/2014 20:20

      como assim?

Exibindo 11 de 16 comentários Mostrar mais ver todos »
Composição: Nexus / Pearl Jam / Pierdavide Carone / Roy Orbison
Esse não é o compositor? Avise-nos.
Contribuição: Marcs Correções: carlos , Tattoed Millionaire e mais 2 »
Exibir acordes »
publicidade
fechar