Jesus Numa Moto

Sá e Guarabyra

 Sá e Guarabyra
Tom: G
		

E|-----------------------------------------------|
B|-----------------------------------------------|
G|-----------------------------------------------|
D|----2--2--2--2--2--2----2--2--2----------------|
A|----2--2--2--2--2--2----2--2--2--3--2--0--2----|
E|----0--0--0--0--3--0----0--3--0----------------|



E|-----------------------------------------------|
B|-----------------------------------------------|
G|-----------------------------------------------|
D|-----------------------------------------------|
A|------------------------------2--3--2--0-------|
E|----0--0--0--0--3--0----0--3--------------3----|



Em
Preso nessa cela
G
De osso, carne e sangue
C                       G
Dando ordens a quem não sabe
                  B7
Obedecendo a quem tem
Em
Só espero a hora
G
Em que o mundo estanque
C                     G
Para me aproveitar do confortode não ser mais
    B7
ninguém
                       C
Eu vou virar a própria mesa
                           G
Quero uivar numa nova alcatéia
      C                         Am7
Vou meter um marlon brandom nas idéias
           B7
E sair por aí
                   C
Pra ser jesus numa moto
                          G
Che gueavara dos acostamentos
                      A
Bob dylan numa antiga foto
                                B7
Classius clay antes dos tratamentos
                           C
Jonh lennon de outras estradas
                         G
Easy rider, dúvida e eclipse
                         A
São tomé das letras apagadas
                        B7
E arcanjo gabriel sem apocalipse
Em
Nada no passado
G
Tudo no futuro
C                         G
Espalhando o que já está morto
                    B7
Pro que é vivo crescer
Em
Sob a luz da lua
G
Mesmo com o sol claro
C                              G
Não me importa o preço que eu pague
                 B7
O meu negócio é viver
80.979 exibições

Comentários 6

Composição: Zé Rodrix
Esse não é o compositor? Avise-nos.
Contribuição: Vini Grego_ReadGunners Correções: Joao e mais 1 »
Exibir acordes »
publicidade
fechar