Beber, Cair e Levantar

Saia Rodada

 Saia Rodada
Tom: A
		
Vamos simbora pra um bar                      Beber, cair e levantar
Beber, cair, levantar.                        Beber, cair, levantar


 Intro: A E
E|-9-9-9-9-----------7-7-7-7-----------|-9-9-9-9-----------7-7-7-7-----------|
B|---------10-10-9-9---------7-7--9-10-|---------10-10-9-9---------7-7--9-10-|
G|-------------------------------------|-------------------------------------|
D|-------------------------------------|-------------------------------------|
A|-------------------------------------|-------------------------------------|
E|-------------------------------------|-------------------------------------|



E|----------------9-----------------7---7-7-7-7-7------------|
B|-10-10-10-10-10----10-10-10-10-10---------------7-7--9-10--|
G|-----------------------------------------------------------|  (2x)
D|-----------------------------------------------------------|
A|-----------------------------------------------------------|
E|-----------------------------------------------------------|



A                    E
Vamos simbora pra um bar
                  A
Beber, cair, levantar
                     E
Vamos simbora pra um bar
                  A
Beber, cair, levantar
                  E
Beber, cair, levantar
                  A
Beber, cair, levantar
                  E
Beber, cair, levantar

A                    E
Vamos simbora pra um bar
                  A
Beber, cair, levantar
                     E
Vamos simbora pra um bar
                  A
Beber, cair, levantar
                  E
Beber, cair, levantar
                  A
Beber, cair, levantar
                  E
Beber, cair, levantar
                  A
Beber, cair, levantar
                  E
Beber, cair, levantar
                  A
Beber, cair, levantar
                  E
Beber, cair, levantar

       A
Cara safado
       E
Cara zueira
                                 A
Só gosta mesmo é de mulher tranqueira
          A7               D
Mulher direita o cara não quer

E                         A
Fica com raiva e ate briga com a mulher
    D                         A
Eu já quis me mudar pro meu amor
                   E
Mas a cachaça me pegou
                        A
E a farra agora é meu lugar
   D                          A
Eu já quis me mudar pro meu amor
                    E
Mas a cachaça me pegou
                         A
E a farra agora é meu lugar

    G                        D
Mas se você quizer me acompanhar
     G                         E
Eu vou te convidar pra ir pra onde?

Bora, bora ...
121.573 exibições

Comentários 0

Composição: Sabe quem é o compositor? Envie pra gente. Contribuição: Leonardo Félix Correções: zuffinha , felixfrodrigues e mais 2 »
Exibir acordes »
publicidade
fechar