Preciso Te Falar

San Marino

Sem foto do San Marino Compositor: San Marino
Tom: A
		
Obss::A Base, da música fica em torno, da primeira, segunda, e terceira, da nota A. O solo e a bateria,
nesta música, entrão antes, portanto, a base começa já atrasada, na nota D.
A música, não tá bem tirada, mas sigam bem certo o que se diz abaixo, que vai dar para quebrar o galho,
com está tablatura.

Base:
  D, A,
E, D, A

Solo:

E|--------------------2--------------------------5----------------------|
B|------3/5--3--2--3---3-----3---5/7--5---3---5----5--------------------|
G|----2-----------------------------------------------------------------|
D|----------------------------------------------------------------------|
A|----------------------------------------------------------------------|
E|----------------------------------------------------------------------|



A                   E
  Preciso te falar
     D                    A
  Será que você tem um tempo?
                   E 
  Quero falar de amor
              D                   A 
  Coisas que não se apagam com o vento...

Base:E

Solo de fundo:


E|------5/7--5---3--5--------------|
B|---------------------------------|
G|---------------------------------|
D|---------------------------------|
A|---------------------------------|
E|---------------------------------|


    A
  Amor,eu já tenho chorado
                            A        
  O coração,eu sei tá machucado
     A                                E
  Será que você não tem um tempo pra mim...
   D                                      A
  Quando vem a solidão,é teu nome que eu chamo
                    E
  É por você que reclamo
      D                    A
  E você nem vem pra me escutar

         Base: E

      D                                     A    
  Se não ligo pra você,diz que tô te esquecendo
                     E        
  Amor,eu estou sofrendo
          D          A          A
  Senta aqui,vamos conversar...


A                   E
  Preciso te falar
     D                    A
  Será que você tem um tempo?
                   E 
  Quero falar de amor
              D                   A 
  Coisas que não se apagam com o vento...


Repete Tudo,.


Obss::As notas fazer de preferencia desse jeito::


  Nota: E              Nota: D                Nota: A
E|------7--------------------5----------------------5-----------------------|
B|------9--------------------7----------------------5-----------------------|
G|------9--------------------7----------------------6-----------------------|
D|------9--------------------7----------------------7-----------------------|
A|--------------------------------------------------7-----------------------|
E|--------------------------------------------------------------------------|
31.471 exibições

Comentários 0

Composição: Sabe quem é o compositor? Envie pra gente. Contribuição: Daniel Correções: Daniel e mais 2 »
Exibir acordes »
publicidade
fechar