Put Your Lights On

Santana

 Santana
Tom: C
		
P.s: Solo ao final da pagina

(intro 2x) Am	  C   	G   	F   	E

Am	 C
Hey now, all you sinners
G		    F        E
Put your lights on, put your lights on
Am	 C
Hey now, all you lovers
G	 	    F	     E
Put your lights on, put your lights on
Am	 C
Hey now, all you killers
G		    F	     E
Put your lights on, put your lights on
Am	 C
Hey now, all you children
G		    F	     E
Leave your lights on, you better leave your lights on
Am			       E
Cause there's a monster living under my bed
Am		 E
Whispering in my ear
Am		         E
There's an angel, with a hand on my head
Am		            E
She say I've got nothing to fear
Am		     E
There's a darkness deep in my soul
Am			   E
I still got a purpose to serve
Am			 E
So let your light shine, deep into my hole
Am			      E
God, don't let me lose my nerve Lose my nerve

(solo) Am   C 

G	  F   E
Hey now, hey now,
Am	 C
Hey now, hey now
G			F     	E
Wo oh hey now, hey now, hey now, hey now
Am	  C
Hey now, all you sinners
G			F       E
Put your lights on, put your lights on
Am	  C
Hey now, all you children
G			F	E
Leave your lights on, you better leave your lights on
Am			  E
Because there's a monster living under my bed
Am		 E
Whispering in my ear
Am			E
There's an angel, with a hand on my head
Am			E
She say's I've got nothing to fear
Am	   C
La ill aha ill allah
G		F E
We all shine like stars
Am	   C
La ill aha ill allah
G		F E
We all shine like stars

(solo)

E|-------------------------------------------------|
B|----13 -----14-----------------------------------|
G|-----------------------9h10h12-9h10p9--9h10p9--9-|
D|---------------------------------------------12--|
A|-------------------------------------------------|
E|-------------------------------------------------|


E|------------------------------------------------------
B|----13wawa--14wawawa-----5-6-8-6--5----5--------------
G|-----------------------7------------7-----7p5-7b9r7-5-
D|------------------------------------------------------
A|------------------------------------------------------
E|------------------------------------------------------



E|----------------------------------------------------
B|---------------------------------------------5---5b-
G|-7-5-7-5-------------------------5-7-7-5-7b9---7----
D|---------7p5-----------------5-7--------------------
A|------------7p5---------7-10------------------------
E|---------------8---8-10-----------------------------



E|----------------------------------17p15-----17p15---------
B|-10wah---10wah---10wah---10wa10wa------17p15-----17p15----
G|----------------------------------********************----
D|----------------------------------------------------------
A|----------------------------------------------------------
E|----------------------------------------------------------



E|------12-----12-12-13-15-13--12----------|
B|-15b17--15b17-------------------15b17~~~-|
G|-----------------------------------------| 
D|-----------------------------------------|
A|-----------------------------------------|
E|-----------------------------------------|
37.879 exibições

Comentários 0

Composição: Julio Reyes / Lonnie Mack
Esse não é o compositor? Avise-nos.
Contribuição: Santana Correções: XSnake1996 e mais 1 »
Exibir acordes »
publicidade
fechar