Coração Que Sofre

Santorine

 Santorine
Tom: A
		

 Intro: A  E  F#m  D
E|---X-----X-0-0X--X--X------X----X-2-2X-4X-5X-|
B|---X-----X----X-3X-2X-2---0X-0-0X-0-0X--X--X-|
G|--2X-2-2-X-2-2X-2X-2X-2---2X-2-2X----X--X--X-|
D|--2X-2-2-X-2-2X-2X-2X-2--2-X-2-2X-2--X-2X-2X-|
A|0--X-0-0-X----X--X--X------X----X----X--X--X-|
E|---X-----X----X--X--X------X----X----X--X--X-|



E|--x-----x-0-0x--x--x------x----x----x----x-|
B|--x-----x----x-3x-2x-----2x-2-2x-3-3x-2-2x-|
G|-2x-2-2-x-2-2x-2x-2x-----2x-2-2x-2-2x-2-2x-|
D|-4x-4-4-x-4-4x-4x-4x-2-0--x-0-0x-0-0x-0-0x-|
A|4-x-4-4-x----x--x--x------x----x----x----x-|
E|--x-----x----x--x--x------x----x----x----x-|


A			E
Quem me dera amanhecer
		F#m
Ao seu lado e ver
		   D
Que nada foi um sonho

A			E
E chegar ao entardecer
			F#m
E simplesmente lhe dizer
		     D
Que sempre amarei você

C#m				D
Por tantas vezes eu me questionei
			      A
Tentando encontrar um jeito de não me machucar
	E
Sem deixar de te amar

Refrão:
A			    E
Um coração que sofre não melhora
			F#m
Sinto sua falta toda hora
			 D
E esse vazio não me deixa mais viver

A				E
Um coração que chora, pede, implora
				F#m
Por favor, acabe com essa dor agora
			D
Antes que ele deixe de bater
			A
Liberte quem ama você

C#m				D
Por tantas vezes eu me questionei
			      A
Tentando encontrar um jeito de não me machucar
	E
Sem deixar de te amar

(Refrão 2x)

( A  E  F#m  D )

Liberte quem ama você (2x)

Liberte e me deixe viver
36.738 exibições

Comentários 2

  • Rick Rick: Postado em 11/12/2011 17:56

    Musica, muito boa =)

  • jcracesar jcracesar: Postado em 05/08/2011 00:18

    musica bacana; será que o pessoal do cifra club poderia postar uma video aula ensinando uns solinhos que tem durante a musica? seria bom!

Composição: Santorine
Esse não é o compositor? Avise-nos.
Contribuição: dalysonlelis Correções: Carlos , peu_castro e mais 2 »
Exibir acordes »
publicidade
fechar