Scorpions

Always somewhere

241.959 exibições
Tom: A
Introdução: 1
	ESSA E A SEGUNDA introdução, percorre por toda musica.

TOQUE A INTRO 1  QUATRO VEZES  ATÉ CHEGAR O SOLO.


e|--------------------------3-----3-----0---0-------0--------0----0----|R|"Correção" Tocada assim
b|--------1-----1------0------0-----0---------3-------3-------1--------|E| pode acompanhar a 
g|----------0-----0-------------0-----0---------2-------0-------2------|P| música na intro e
d|------------2-----2---------------------3-------2--------------------|E| cantada. Só altera o
a|--0-2-3--------------------------------------------------0-----------|T| fim, no final de cada
E|------------------------3--------------------------------------------|I| verso da música... 

                                                                        R
assim:                                                              


e|--------------------------3-----3-----0---0-----0-----0-----R----|PODEM VER QUE A ÚNICA 
b|--------1-----1------0------0-----0---------1-----1-----1---E|----|DIFERENÇA É NA CONCLUSÃO
g|----------0-----0-------------0-----0---------2-----2-----2-P----|DA SEQUÊNCIA (no fim),DEIXANDO 
d|------------2-----2---------------------0-------------------E|----|A SEQUÊNCIA MAIS CURTA.
a|--0-2-3-----------------------------------------------------T----|  
E|------------------------3-----------------------------------I----|  

                                                              R



Introdução: 2   ESSA INTRO 2 ACOMPANHA JUNTO A INTRO 1 MAS ISSO NA PARTE EM QUE A MUSICA É CANTADA...


e|------------------------------------------------------------------------|
b|--------1-----1--------------3-----3----------1-----1-----1-----1-------|
g|----------0-----0--------------4-----4-----2----2-----2-----2-----2-----|
d|------------2-----2----2-3-5-----5-----5----------2-----2-----2-----2---|
a|--0-2-3-----------------------------------------------------------------|
E|------------------------------------------------------------------------|

OBS: SÓ TOQUE ESTA INTRO 2 QUANDO A MUSICA É CANTADA.


DEPOIS DE FAZER A INTRO 1 VEM O PRIMEIRO SOLO. POIS NESSA MUSICA TEM 4 SOLOS. ESTOU APENAS COLOCANDO 
UM PARA SE
 TER UMA "BASE"....
LOGO CORRIGIREI E COLOCAREI OS OUTROS.

(SOLO 1)

e|-----------------------------------------|
b|------------------------------10---------|
g|-----9--7---------------9--7-------------|
d|-----------10-9-10/7---------------------|
a|-----------------------------------------|
E|-----------------------------------------|


Arrive at seven the place feels good
    Composição: Klaus Meine / Rudolf SchenkerColaboração e revisão:
    • ReNaN
    • justpink

    Comentários 17

    • mateuseidermoura mateuseidermoura: Postado em 05/02/2015 19:30

      Vídeo aula ou eu vou procurar na vossa concorrência TVCIFRAS THE BEST

    • Ana Vitória Ana Vitória: Postado em 18/09/2014 17:42

      Video aulaaa

    • dilson.araujo.7 dilson.araujo.7: Postado em 11/08/2014 23:26

      video aulas dessa musica pelo amo de Deus \o>

    • saulo saulo: Postado em 11/03/2014 22:10

      muito boa a música,que comentarios ai em

    • renatooliveiraf renatooliveiraf: Postado em 19/12/2012 00:17

      uma mamata...musica facil da poha!!!!!!

    • jhonnyliugi jhonnyliugi: Postado em 17/10/2012 11:45

      Muito boa esta música, e não precisa de video aula mesmo, e bem facil

    • diego_vitor diego_vitor: Postado em 22/08/2012 20:39

      O cara se revolta com isso, pow!
      A música é fácil, não precisa, mas suportar modinhas com vídeo-aulas é foda!

    • diego_vitor diego_vitor: Postado em 22/08/2012 20:38

      O problema não é precisar ou não, mas é este: uma bosta de música vira sucesso, video-aula. Bandas, como Alice in Chains, não tem 1 sequer!

    • cristiandelgado cristiandelgado: Postado em 21/03/2012 11:28

      Não precisa mas a musica merece video aula,se até michel teló e luan bichana tem videoaula...

    • hammerfallerths hammerfallerths: Postado em 15/03/2012 12:30

      puta que pariu! nem precisa de video aula, seus preguiçosos, vão estuda a música e para de encher o saco dos outros.

    Exibindo 10 de 17 comentários Mostrar mais ver todos »

    conseguiu tocar?

    • nonkz
    • Matheus
    • Felipe
    • Evelyn
    • luan.moura.357
    • Ariel
    • Leticia
    • •••
    Filipe Gomes1.149 visualizações
      ver covers de outras músicas »
      0:00 / 0:00

      Capítulos

        2 versões de Guitar Proformatodownloadscontribuição
        play/pausefechar subir/descer velocidade
        6ª corda E5ª corda A4ª corda D3ª corda G2ª corda B1ª corda E
          acordes
          publicidad
          fechar
          ok