Alice Said

Screaming Trees

 Screaming Trees
Tom: C
		
Tabbed by: Lady Baglady
Email: S*

Tuning: Standard (EADGBe)




Intro:

E5 / D5 / E5 / D5


VERSE:

E5                    D5
Alice said to come on in now
          A5
It's time for bed
E5
The hour's quite late
         D5           A5
I need a nap to clear my head
E5                       D5              A5
Laid it down, the pillow softly calls to you and me
E5                              D5
I've been sat down, bounced all around
            A5    E5    D5    G5  A5
Now I can't seeeeeeeeeeeeeeeeeeeeeeeeeeee, blind happily...

(same for all of the verses)


Chords over solo:

E5/D5



OUTRO LEAD:


e |------------------------------------------------------------|
B |------------------------------------------------------------|
G |---------9-9-7----------7-7-5-------------------------------|
D |------9-9------7-----7-7-----5--------7-7-5---------7-7-5---|
A |---7-7------------5-5--------------7-7-----5-----7-7--------|
E |--------------------------------5-5-----------5-5-----------|



e |------------------------------------------------------------|
B |------------------------------------------------------------|
G |---------9-9-7----------7-7-5-------------------------------|
D |------9-9------7-----7-7-----5--------7-7-5---------7-7-5---|
A |---7-7------------5-5--------------7-7-----5-----7-7--------|
E |--------------------------------5-5-----------5-5-----------|


    

e |---------------------|
B |---------------------|
G |---------------------|
D |---7b8-7b8-7b8-7p5---|
A |---------------7-----|
E |---------------------| (Continued from above)



Play to end:

E5 / D5 / A5 / E5 / D5 / A5 
Alice said...               




902 exibições

Comentários 0

Composição: A. Jiménez / Luis Florez / Mary Larkin / Sergey Prokofiev
Esse não é o compositor? Avise-nos.
Consegui tocarAinda não conseguiram tocar essa música. Seja o primeiro!
    Não consegui tocar
    Exibir acordes »
    publicidade
    fechar