Rosa de Hiroshima

Secos & Molhados

 Secos & Molhados
Tom: D
		
Intro: D  G

A             G                D      G
 Pensem nas crianças mudas,telepáticas
A             G              D    G
 Pensem nas meninas cegas inexátas
D              C               G/B    Gm/Bb
 Pensem nas mulheres, rotas alteradas
A             G                D     G
 Pensem nas feridas como rosas cálida
A                   G                D   G
 Mas! Só não se esqueçam da rosa, da rosa
A                G                   D    G
 Da rosa de Hiroshima, a rosa hereditária
D              C                G/B   Gm/Bb
 A rosa radioativa, estúpida inválida
A               G                 D     G
 A rosa com cirrose a anti-rosa atômica
A                 G                   D
 Sem cor, sem perfume, sem rosa, sem nada.

    D
E|-2-2----2----
B|-3--3--------
G|-2---2 2-----
D|------0----0-
A|-------------
E|-------------


    G
E|-----3--------3----
B|------3------------
G|---0--------0------
D|-------------------
A|-------------------
E|-3-------3-------3-



    A
E|-----0--------0----
B|-------2-----------
G|---2--------2------
D|-------------------
A|-0-------0-------0-
E|-------------------



    G/B
E|------3--------3---
B|--------3----------
G|---0--------0------
D|-------------------
A|-2--------2------0-
E|-------------------



    Gm/Bb
E|------3--------3--
B|--------3---------
G|----0-------0-----
D|------------------
A|--1-------1-----0-
E|------------------
100.320 exibições

Comentários 0

Composição: Gerson Conrad / Vinícius de Moraes
Esse não é o compositor? Avise-nos.
Contribuição: fran Correções: dandaio »
Exibir acordes »
publicidade
fechar