Fidelidade - Gálatas

Sérgio Lopes

 Sérgio Lopes
Tom: C
		
Intro:  C  G  Am7  G  F (base)

C                                         G/B              Am7
Depois de tanto tempo andando juntos
                                               Em
hoje eu voltei me sentindo tão só
F                    Am7         G
noite escura, sinto frio, onde estás?
C                                                      G/B         Am7
quanto mais ando mais cresce a distância
                                                Em
como escadas que nunca tem fim
F                 Am7                                 G
sinto falta do teu ombro, onde estás, onde estás?

                F
me arrependo do que pensei
             Am7
me envergonho do que falei
               F
eu não vou deixar o meu orgulho
       Am7     G
nos afastar outra vez

                F
eu não quero continuar
           Am7
vou parar para te esperar
          F
te pedir pra me perdoar
              G                 G7
eu não quero viver sem ti!!!!!

C             G/B  Dm        Am    G
Espírito Santo, Espírito Santo     (8x)


E|-----------------------------------------------------------------|
B|--------------------------12-13--15--13--12----------------------|
G|-----------14------10--14----------------------14--12--12-9------|
D|-------------------------------------------------------------12~-|
A|-----------------------------------------------------------------|
E|-----------------------------------------------------------------|




E|-------------------------------------------15--------------------|
B|------------13--15-16----15--13------13-15-------18-15-----------|
G|---------12-----------------------12-----------------------------|
D|-----------------------------------------------------------------|
A|-----------------------------------------------------------------|
E|-----------------------------------------------------------------|
26.041 exibições

Comentários 0

Exibir acordes »
publicidade
fechar