Chico Mineiro

Sérgio Reis

 Sérgio Reis Compositor: André e Fabiano
Tom: E
		
Intro:


E|-----------------------------------------------------------|
B|-----------------------------------------------------------|
G#|-0-1-3-5-5-5-5-7-7-7-5-3-3-3-3-8-8-8-8-7-7-7--5-3-5-3-1-0-|
E|-0-2-4-5-5-5-5-7-7-7-5-4-4-4-4-9-9-9-9-7-7-7--5-4-5-4-2-0--|
B|-----------------------------------------------------------|


( E  B )

 E                 B7
Fizemos a última viagem
                        E
Foi lá pro sertão de Goiás.
                    B7
Foi eu e o Chico Mineiro
                   E  E7
também foi um capataz.
A
Viajemo muitos dia
     B7             E
pra chegar em Ouro Fino
 C#m                 F#m
aonde nós passemo a noite
  B7             E
numa festa do Divino.

Intro:

E|-----------------------------------------------------------|
B|-----------------------------------------------------------|
G#|-0-1-3-5-5-5-5-7-7-7-5-3-3-3-3-8-8-8-8-7-7-7--5-3-5-3-1-0-|
E|-0-2-4-5-5-5-5-7-7-7-5-4-4-4-4-9-9-9-9-7-7-7--5-4-5-4-2-0--|
B|-----------------------------------------------------------|


( E  B )

  E                B7
A festa estava tão boa
                      E
mas antes não tivesse ido
               B7
o Chico foi baleado
                      E   E7
por um homem desconhecido.
    A
Larguei de comprar boiada.
   B7            E
Mataram meu companheiro.
    C#m               F#m
Acabou-se o som da viola,
    B7               E
acabou-se o Chico Mineiro.

Intro:

E|-----------------------------------------------------------|
B|-----------------------------------------------------------|
G#|-0-1-3-5-5-5-5-7-7-7-5-3-3-3-3-8-8-8-8-7-7-7--5-3-5-3-1-0-|
E|-0-2-4-5-5-5-5-7-7-7-5-4-4-4-4-9-9-9-9-7-7-7--5-4-5-4-2-0--|
B|-----------------------------------------------------------|


( E  B )

  E                 B7
Depois daquela tragédia
                   E
fiquei mais aborrecido.
                       B7
Não sabia da nossa amizade
                      E  E7
porque a gente era unido.
    A
Quando vi seus documento
    B7           E
me cortou o coração
     C#m               F#m
de sabê que o Chico Mineiro
    B7              E   B E
era meu legítimo irmão.

Comentários 6

  • Felipe Felipe: Postado em 06/07/2014 16:37

    Video aula

  • madu.marques.7 madu.marques.7: Postado em 29/09/2013 11:22

    gostaria de ter partitura para iniciantes destas músicas raiz

  • bleno bleno: Postado em 18/10/2012 15:47

    mt facil

  • zzeeiirroo zzeeiirroo: Postado em 05/08/2012 14:09

    si quiser saber como tocar essa musica no teclado mim ligue 97076974 ou 37733641 falar com mc celsão "celso otavio".................

  • guilhermecosta guilhermecosta: Postado em 25/07/2011 16:10

    video aula , por favor

  • foscarini foscarini: Postado em 25/04/2011 21:53

    nota dez mas coloque video aula nessa porra

Composição: Tonico / Francisco Ribeiro
Esse não é o compositor? Avise-nos.
Contribuição: Xereba Correções: Daniella e mais 2 »
Exibir acordes »
publicidade
fechar