Eu Quero É Botar Meu Bloco Na Rua

Sérgio Sampaio

 Sérgio Sampaio Compositor: Sérgio Sampaio
Tom: D#
		
Intro:

E|-----------13p11------11------11~-----------------------------------------|
B|------------------13------13---------13p11—13p11-------11p9--9~---11p9--9~|
G|--8/10~-------------------------------------------13~------10---------10--|
D|--------------------------------------------------------------------------|
A|--------------------------------------------------------------------------|
E|--------------------------------------------------------------------------|



E|--------11--------------------11------------11----------------------------|
B|--11h13---13----11h13---11h13~---13--11h13~----13---11h13p11------11~-----|
G|--------------------------------------------------------------13~---------|
D|--------------------------------------------------------------------------|
A|--------------------------------------------------------------------------|
E|--------------------------------------------------------------------------|



E|--------------------------------------------------------------------------|
B|--11h13---13p11---13p11---13p11---13p11--------11-9--9-------------9---9--|
G|----------------------------------------13---------10-10-8—10~---10--10-10|
D|--------------------------------------------------------------------------|
A|--------------------------------------------------------------------------|
E|--------------------------------------------------------------------------|


     G                              G7
E|---------------------------------3---3--x---3-----------------------------|
B|---8------8--------8-----8-------3---3--x---3-----------------------------|
G|---7--------7---------7----7-----4---4--x---4-----------------------------|
D|---9-----------9-------9----9----3---3--x---3-----------------------------|
A|---10--------------10------------5---5--x---5-----------------------------|
E|---------------------------------3---3--x---3-----------------------------|


Ou:


     G                    G7
E|---3--3----3----3-------3---3--x---3--------------------------------------|
B|---3---3----3----3------3---3--x---3--------------------------------------|
G|---4----4----4----4-----4---4--x---4--------------------------------------|
D|---5--------------------3---3--x---3--------------------------------------|
A|---5--------------------5---5--x---5--------------------------------------|
E|---3--------------------3---3--x---3--------------------------------------|


G7        Cm7                   Bb
  Há quem diga que eu dormi de touca
               Ab                    G7
Que eu perdi a boca, que eu fugi da briga
               Fm                 Cm7
Que eu caí do galho e que não vi saída
                D7                    G7
Que eu morri de medo quando o pau quebrou

        Cm7                    Bb
Há quem diga que eu não sei de nada
                  Ab                G7
Que eu não sou de nada e não peço desculpas
                  Fm                     Cm7
Que eu não tenho culpa, mas que eu dei bobeira
              D7             G   G7
E que Durango Kid quase me pegou

           Cm7        Bb
Eu quero é botar meu bloco na rua
 Ab        G7
Brincar, botar pra gemer
           Cm7        Bb
Eu quero é botar meu bloco na rua
 Ab         G7
Gingar, pra dar e vender

        Cm7                  Bb
Eu, por mim, queria isso e aquilo
                Ab                     G7
Um quilo mais daquilo, um grilo menos disso
                  Fm                  Cm7
É disso que eu preciso ou não é nada disso
               D7              G      G7
Eu quero todo mundo nesse carnaval...

            Cm7       Bb
Eu quero é botar meu bloco na rua
 Ab        G7
Brincar, botar pra gemer
            Cm7       Bb
Eu quero é botar meu bloco na rua
 Ab          G7
Gingar, pra dar e vender
47.339 exibições

Comentários 1

  • geri geri: Postado em 16/12/2013 20:56

    Que música!

Composição: Sergio Moraes Sampaio
Esse não é o compositor? Avise-nos.
Contribuição: j1berto Correções: flaviogomesjr e mais 2 »
Exibir acordes »
publicidade
fechar