Bem Distante Eu Te Vi

Shirley Carvalhaes

 Shirley Carvalhaes Compositor: Weslley
Tom: D
		

E|------------------------------------------10-14-12-10-12-10-12-10-12-14-14-12-10-10-12-14-19-17-14-10-12/14--
B|--5/7\5-3-3/5-5/7\5-3---5/7\5-3---3-3/5-7--------------------------------------------------------------------
G|----------------------4---------2----------------------------------------------------------------------------
D|-------------------------------------------------------------------------------------------------------------
A|-------------------------------------------------------------------------------------------------------------
E|-------------------------------------------------------------------------------------------------------------



E|-14-12-10-13-12-10-------------------------------------------------------------------------------------------
B|-------------------------------------------------------------------------------------------------------------
G|-------------------------------------------------------------------------------------------------------------
D|-------------------------------------------------------------------------------------------------------------
A|-------------------------------------------------------------------------------------------------------------
E|-------------------------------------------------------------------------------------------------------------



D
Bem distante eu te vi, parado a beira do caminho
             A
Cabisbaixo e sem direção, se sentindo tão sozinho
            G
Coração batendo angustiado em seu peito
                                         D
Você vive maus momentos

      G                                                                                                     D
É todo dia a mesma coisa e você se cansou de tanto sofrimento
                        A                                                               G                              D
Mas eu declaro que chegou a hora e deus vai tirar você desse vento
            G
Se a fúria do inimigo contra ti se levantar
                D
Ele ordena anjos poderosos para te guardar
               A                                                             E  F#m  G                          D
Foi ungido, foi remido e separado pra vencer          e reinar com ele

                             A
Deus vai na frente garantindo a vitória para os filhos seus
                                Bm                                                                                     G
Quebrando as correntes sujeitando os inimigos porque ele é deus
                                    D                                                            A
Vai sair água da rocha com esse deus não há quem possa
                                     D
Não há como nosso deus

              A
Lá no egito trouxe as pragas e humilhou um tal de faraó
                         Bm                                                                                 G
Exaltou a israel e fez saber que aquele povo não estava só
                                       D                                      A
Faz a morte virar vida pra tudo tem uma saída
                        G                  D
Não há deus como esse deus

      A                                                                    D            G
Elohim , el shaday, adonai adoro o nome dele
                                 D                                    A                                            D
Ele é deus verdadeiro ele te amou primeiro te levanta desse chão

       A                                                                   D            G
Elohim, el shaday, adonai  adore o nome dele
                                  D                                             A                G                   D
Faz a morte virar vida  pra tudo tem uma saída faz de ti um campeão
23.940 exibições

Comentários 3

Composição: Sabe quem é o compositor? Envie pra gente. Contribuição: resident001 Correções: lokabreu e mais 1 »
Exibir acordes »
publicidade
fechar