Shirley Carvalhaes

Há Uma Saída

79.370 exibições
Tom: D
Intro (acordes): Em  G  D  A  G  D  A#  A

Solo de guitarra:

E|2---0-------0-------------------2---0-----------------------2---0-------------------|
B|--------3-------------------------------3---0-----------------------3-----------3---|
G|------------------------------------------------------------------------2-----------|
D|------------------------------------------------------------------------------------|
A|------------------------------------------------------------------------------------|
E|------------------------------------------------------------------------------------|


E|---10----10---------------14---12---10---12-----------------------14---14-12-10-7---|
B|10----10----------------------------------------------------------------------------|
G|------------------------------------------------------------------------------------|
D|------------------------------------------------------------------------------------|
A|------------------------------------------------------------------------------------|
E|------------------------------------------------------------------------------------|


E|7-10-19---17---14-12-10---14---------------14---12---10---13-------12---10---12---|
B|----------------------------------------------------------------------------------|
G|----------------------------------------------------------------------------------|
D|----------------------------------------------------------------------------------|
A|----------------------------------------------------------------------------------|
E|----------------------------------------------------------------------------------|


       D
Bem distante eu te vi, parado a beira do caminho
     A
Cabisbaixo e sem direção Se sentindo tão sozinho
    G                                                    D    (G D) D7
Coração batendo angustiado em seu peito Você vive maus momentos
  G                                                      D   (G D)
É todo dia a mesma coisa e você se cansou, de tanto sofrimento
          A                                    Em G             D  (G D) D7
Mas eu declaro que chegou a hora e Deus vai tirar,  você deste vento
     G
Se a fúria do inimigo contra ti se levantar
      D
Ele ordena anjos poderosos para te guardar
      A                                   Em D/F# G      A       D
Foi ungido. foi remido e separado pra vencer        E reinar com Ele
             A
Deus vai na frente garantindo a vitória para o filho seu
                Bm                                         G
Quebrando as correntes, sujeitando o inimigo porque Ele é Deus
                 D
Faz sair água da rocha
                          A
Com este Deus não há quem possa
                    D   ( G D )
Não há como o nosso Deus
        A
Lá no Egito trouxe as pragas e humilhou o tal de Faraó
              Bm                                        G
Exaltou a Israel e fez saber que aquele povo não estava só
                  D                        A
Faz a morte virar vida, pra tudo tem uma saída
    A7                D
Não há Deus como este Deus

Refrão:
    A                                   D    G
Elohin, El Shaday, Adonai, Adore o nome DELE
                D
Ele é Deus verdadeiro
                A                        D
Ele te amou primeiro, te levanta deste chão
    A                                   D    G
Elohin, el Shaday, Adonai, adore o nome DELE
                  D                        A
Faz a morte virar vida, pra tudo tem uma saída
       G     A    D
Faz de ti um campeão

Final:

 G D/F# Em                D
       Faz de ti um campeão
    Composição: Fabiano BarcellosColaboração e revisão:
    • Julia
    • daniloozian
    • Jose
    • leco
    • +2

    Comentários 3

    140 .
    • angela angela: Em 09/05/2014 13:47

      quero o solo se tiver como :-)

    • diepy diepy: Em 19/01/2013 03:11

      Tá ótima a cifra desse hino. Parabéns.

    • flikknot flikknot: Em 03/08/2012 20:51

      lindo louvor, parabéns por lembrarem de por a cifra ^^

    140 cancelar

    conseguiu tocar?

    • leugomes
    • tales.junior.777
    • DEIVIS
    • w10.
    • edudufera
    • rhydry
    • João Pedro

    covers

    Grave um vídeo tocando Há Uma Saída e mande pra gente!

    Ex.: http://www.youtube.com/watch?v=0IvSvIwGdwk
    ver covers de outras músicas »
    0:00 / 0:00

    Capítulos

      1 versão de violão dificuldade exibições contribuição e correção
      1 versão de guitarra dificuldade exibições contribuição e correção
      1 versão de cavaco dificuldade exibições contribuição e correção
      1 versão de teclado dificuldade exibições contribuição e correção
      play/pausefechar subir/descer velocidade
      6ª corda E5ª corda A4ª corda D3ª corda G2ª corda B1ª corda E
        acordes
        publicidad
        fechar
        ok