Sterile Nails And Thunderbowels

Silencer

 Silencer Compositor: Nattramn / Leere / Steve Wolz
Tom: 
		
Intro, w/clean guitar

|-----------------------------------------------------------|
|-----------------------------------------------------------|
|-----------------------------------------------------------|
|---5-----7----7h8-----------------8-----7----5-------------|
|-------------------------8-----5---------------------------|
|-----------------------------------------------------------|



|-------------------------------------------------------------------------|
|-------------------------------------------------------------------------|
|------6------------------------------------------------------------------|
|------------8---7----5---------------------------------------------------|
|-------------------------------------------------------------------------|
|-------------------------------------------------------------------------|


With distortion

Riff 1

|-----------------------------------------------------|
|-----------------------------------------------------|
|---0----2---2h3---------------[4]--3---2------0------|
|-----------------------3---0-------------------------|
|-----------------------------------------------------|
|-----------------------------------------------------|


Riff 2 - Clean guitar

|------------------------------------------------------------ |
|-------------------------------------------------------------|
|-------------------------------------------------------------|
|-----------8-------------------------------------------------|
|---10------------5--[6] ----5----5---------------------------|
|----------------------------3----3---------------------------|


Riff 3

|--------------------------------------|---------------------------------|
|--------------------------------------|---------------------------------|
|--------------------------------------|---------------------------------|
|--------------------------------------|---------------------------------|
|--5--5---8--8-8-8---5--5-5--8--8-8-8--|--5--5----7-7-7--5-5---7-7-7-----|
|--3--3---6--6-6-6---3--3-3--6--6-6-6--|--3--3----5-5-5--3-3---5-5-5-----|


Riff at the end

|-------------------------------------|
|-3"---0"----3"----4"-----0"---4"-----|
|-4"---2"----4"----4"-----2"----5"----|
|-------------------------------------| Gtr 2
|-------------------------------------|
|-------------------------------------|



|-------------------------------------------------||-------|
|--1"---0"---0"-----1"----------------------------||-1-----|
|--2"---2"---1"-----1"----------------------------||-3-----|
|-------------------------------------------------||-0-----| Gtr 2
|-------------------------------------------------||-------|
|-------------------------------------------------||-------|


Riff 4 - Break

|--------------------------|---------------------------|
|--------------------------|---------------------------|
|--------------------------|---0---3--2--0---0---------|
|------0----3--------------|---------------------------|
|--3-------------5----5----|---------------------------|
|----------------3----3----|---------------------------|



|--------------------------------------|
|--------------------------------------|
|-------------3----2--2--[0]-----------|
|--0----0-1----------------------------|
|--------------------------------------|
|--------------------------------------|


Riff 5

|-----------------------------------------------------------|
|-----------------------------------------------------------|
|-----------------------------------------------------------|
|-----0"----------------------------------------------------|
|-1"--------1"----4"-----0"--1"------------------0"---------|
|---------------------------------4"-3"-4"-3"---------------|


Riff 6

|-----------------------------------------------------|
|-----------------------------------------------------|
|-----------------------------------------------------|
|-2-2---3-3-3-3--2--2---3-3-3-3-----------------------|
|-0-0---1-1-1-1--0--0---1-1-1-1---0-0---1-1-1-1---1---|
|---------------------------------2-2---3-3-3-3---2---|


Finish with this

|-------------------------------------|
|-3"------3"-----1"-------------------|
|-0"------5"-----2"-------------------| gtr 2
|-------------------------------------|
|-------------------------------------|
|-------------------------------------|
619 exibições

Comentários 0

Consegui tocarAinda não conseguiram tocar essa música. Seja o primeiro!
    Não consegui tocar
    Exibir acordes »
    publicidade
    fechar