Crazy

Simple Plan

 Simple Plan
Tom: F
		
Afinação: D# G# C# F# A# D#


D#|---------2------------------|
A#|-----2-------2--------------|
F#|---4---4---4---4------------|
C#|--4-------------------------|
G#|----------------------------|
D#|----------------------------|


Intro: B9  G#m  E  F#m

B9
Tell me what's wrong with society 
When everywhere I look, I see 
G#m
Young girls dying to be on TV 
They won't stop till they've reached their dreams 
E
Diet pills, surgery 
Photoshopped pictures in magazines 
F#m
Telling them how they should be 
It doesn't make sense to me 
 
Refrão: 
                 B9
Is everybody going crazy? 
                 G#m
Is anybody gonna save me? 
                     E
Can anybody tell me what's going on? 
Tell me what's going on? 
       F#m
If you open your eyes 
You'll see that something is wrong 
 
B9
I guess things are not how they used to be 
There's no more normal families 
G#m
Parents act like enemies 
Making kids feel like it's World War III 
E
No one cares, no one's there 
I guess we're all just too damn busy 
F#m
And money's our first priority 
It doesn't make sense to me 
 
Refrao: 
                 B9
Is everybody going crazy? 
                 G#m
Is anybody gonna save me? 
                     E
Can anybody tell me what's going on? 
Tell me what's going on? 
       F#m
If you open your eyes 
You'll see that something is wrong 
 
Solo:


D#|--------------------------------------------------------|
A#|--------------------------------------------------------|
F#|--------------------------------------------------------|
C#|--------------------------------------------------------|
G#|---6--6---4---6--6--2---4---2-2-2-2-2--9-9-9-9-9-9--11--|  2x
D#|--------------------------------------------------------|


Base: G#m  F#m  G#m  E  B9 (2x) (na velocidade do solo)
 
 (com o solo)                
Is everybody going crazy? 
Is everybody going crazy? 
 
B9
Tell me what's wrong with society 
When everywhere I look I see 
G#m
Rich guys driving big SUVs 
While kids are starving in the streets 
E
No one cares 
No one likes to share 
F#m
I guess life's unfair 
 (aumenta um tom)


D#|---------4------------------|
A#|-----4-------4--------------|
F#|---6---6---6---6------------|
C#|--6-------------------------|
G#|----------------------------|
D#|----------------------------|

 
Refrão:
  
                 C9
Is everybody going crazy? 
                 A#m
Is anybody gonna save me? 
                    F#
Can anybody tell me what's going on? 
Tell me what's going on? 
       G#
If you open your eyes 
                                        C9
You'll see that something, something is wrong 
                   A#m9
Is everybody going crazy? 
                    F#
Can anybody tell me what's going on? 
Tell me what's going on? 
       G#
If you open your eyes 
You'll see that something is wrong  
 
( C9 )

Comentários 3

Composição: Francis Hime / Jay Johnson / Simple Plan
Esse não é o compositor? Avise-nos.
Contribuição: Nathalie Band Correções: guilherme , Fernando e mais 8 »
Exibir acordes »
publicidade
fechar