Lucky One

Simple Plan

 Simple Plan Compositor: Simple Plan
Tom: C
Afinação: Eb Ab Db Gb Bb Eb
		
Intro:

              Am                    C                   F7M                 C
E|--------------0---------------------0-------------------0-------------------0----------|
B|-------1---------1-----------1---------1---------1---------1---------1---------1-------|
G|----2-----2---------2------------------------------------------------------------------|
D|----------------------------------------------3-----3---------3------------------------|
A|--------------------------3-----3---------3-----------------------3-----3---------3----|
E|---------------------------------------------------------------------------------------|


        Am        C           F      C
All the stars are lined up so perfectly
    Am   C         F       C
For everybody, but not for me
                 Am   C
Wish it could be easy
              F        C
But it never goes that way
                    Am     C
It's never like the movies
               F
It's never like they say

    F                     C
But maybe one day I'll be back one my feet
    Am                       G
And all of this pain will be gone
    F                    C
And maybe it won't be so hard to be me
    Am                          G
And I'll find out just where I belong

    F
It feels like it's taking forever
    Am
But one day things can get better
    G                  F (deixe soar)
And maybe my time will come

And I'll be the lucky one

(F C G)x2


E|--------------------------------|
B|-----6--5--3------3-6--5--3-----|
G|--------------4-5---------------|
D|--------------------------------|
A|--------------------------------|
E|--------------------------------|


      Am         C
Now I can't stop thinking
         F          C
How this life could be
      Am      C
I can keep pretending
     F     C
But, honestly
                     Am         C
Would it really make difference?
                     F        C
Would it really ever change a thing?
                    Am     C
It's never like the movies
                F
It's never like you think

    F                     C
But maybe one day I'll be back one my feet
    Am                       G
And all of this pain will be gone
    F                    C
And maybe it won't be so hard to be me
    Am                          G
And I'll find out just where I belong

    F
It feels like it's taking forever
    Am
But one day things can get better
    G                  F (deixe soar)
And maybe my time will come

And I'll be the lucky one

(F C G)x2


E|--------------------------------|
B|-----6--5--3------3-6--5--3-----|
G|--------------4-5---------------|
D|--------------------------------|
A|--------------------------------|
E|--------------------------------|


   F
So give me a reason to keep holding on
   Am                                                 G
Something that makes me believe that my life's gonna change
   Am
Seems like everyone else gets a shot, gets a break
   F
I can't wait for that to be me
    F
Maybe one day I'll be back on my feet
     Am                       G
And all of this pain will be gone (all of this pain will be gone)
   F                  C
Maybe it won't be so hard to be me
    Am                          G
And I'll find out just where I belong (find out just where I belong)

  F                     C
Maybe one day I'll be back one my feet
    Am                       G
And all of this pain will be gone
    F                    C
And maybe it won't be so hard to be me
    Am                          G
And I'll find out just where I belong


    F
It feels like it's taking forever
    Am
But one day things can get better
    G                  F (deixe soar)
And maybe my time will come

And I'll be the lucky one

(F C G)x2


E|--------------------------------|
B|-----6--5--3------3-6--5--3-----|
G|--------------4-5---------------|
D|--------------------------------|
A|--------------------------------|
E|--------------------------------|


And I will be the lucky one
989 exibições

Comentários 2

  • Vinicius Vinicius: Postado em 13/09/2014 10:11

    galera como é o ritmo dessa música '-' ???

  • Mariane Mariane: Postado em 31/03/2014 21:58

    essa musica

Composição: Pierre Bouvier e Chuck Comeau
Esse não é o compositor? Avise-nos.
Contribuição: caio2276
Exibir acordes »
publicidade
fechar