Sin Bandera

Mientes Tan Bien

34.236 exibições
Tom: G
INTRO:

Violão 1: Dedilhado

             G                    G                 Dadd9/F#               Em7
E|----------3------3--|----------3------3--|----------3------3--|----------0---------|
B|--------3------3----|--------3------3----|--------3------3----|--------3------3----|
G|-----0-------0------|-----0-------0------|-----2-------2------|-----0-------0---0--|
D|--------------------|--------------------|--------------------|--------------------|
A|--------------------|--------------------|--------------------|--------------------|
E|--3-----------------|--3-----------------|--2-----------------|--0-----------------|


(Dueto)
Violão 1:

             G                    G                 Dadd9/F#               Em7
E|----------3------3--|----------3------3--|----------3------3--|----------0---------|
B|--------3------3----|--------3------3----|--------3------3----|--------3------3----|
G|-----0-------0------|-----0-------0------|-----2-------2------|-----0-------0---0--|
D|--------------------|--------------------|--------------------|--------------------|
A|--------------------|--------------------|--------------------|--------------------|
E|--3-----------------|--3-----------------|--2-----------------|--0-----------------|


Violão 2:


E|---------7----------|---8-----7----------|---------9----------|---8-----7----------|
B|---------8----------|---8--------8-------|---------8----------|---8--------8-------|
G|------7-------------|---------------7----|------7-------------|---------------7----|
D|---9----------------|---------------9----|--9-----------------|---------------9----|
A|--------------------|--------------------|--------------------|--------------------|
E|--------------------|--------------------|--------------------|--------------------|



  Cadd9                 D                     G                 Dadd9/F#
 Que te quedaras conmigo una vida entera
  Cadd9                 D                     G                 Dadd9/F#
 Que contigo adios invierno solo primavera
   Em7                       Em7/D
 Que las olas son de magia y no de agua salada
  Cadd9             Cadd9/B       Am
yo te creo todo y tu no me das nada
  C               D   -   Dadd9            D
tu no me das nada

 Cadd9                 D                     G                 Dadd9/F#
 Que si sigo tu camino llegaré hasta el cielo
 Cadd9                 D                     G                 Dadd9/F#
 tu me mientes en la cara y yo me vuelve ciego
  Em7                  Em7/D
 yo me trago tus palabras tu juegas un juego
  Cadd9             Cadd9/B          Am
y me brilla el mundo cuando dices juego
C               D   -   Dadd9            D
cuando dices juego
            Cadd9
Cuando dices siento siento que eres todo
   D                 G  -  Dadd9/F#           Em7
Cuando dices vida yo estaré contigo
          Cadd9                 D
tomas en mi mano y por dentro lloro
                    G  -  Dadd9/F#           Em7
Aunque sea mentira me hace sentir vivo
                         C                     C          D   -  Daad9   D
Aunque es falso el aire siento que respiro

Refrão:
Cadd9                 Cadd9                  D
 Mientes tan bien
  D                 G
que me sabe a verdad
Dadd9/F#               Em7
todo lo que me das
                     D
y ya te estoy amando
 Cadd9                 Cadd9                  D
 mientes tan bien
  D                       Em
que he llegado a imaginar
  Em                  Am7
que mi amor llenas tu piel
 C                     C                   D                     D
y aunque todo es de papel
                         Em
             mientes tan bien

                     Cadd9                 D
Cuando dices siento siento que eres todo
                   G  -  Dadd9/F#           Em7
Cuando dices vida yo estaré contigo
                            Cadd9                 D
tomas de mi mano y por dentro lloro
                   G  -  Dadd9/F#           Em7
Aunque sea mentira me hace sentir vivo
                  C                     C              D   -  Daad9             D
Aunque es falso el aire siento que respiro

(Refrão)
Cadd9                 Cadd9                  D
 Mientes tan bien
  D                 G
que me sabe a verdad
Dadd9/F#               Em7
todo lo que me das
                     D
y ya te estoy amando
 Cadd9                 Cadd9                  D
 mientes tan bien
  D                       Em
que he llegado a imaginar
  Em                  Am7
que mi amor llenas tu piel
 C                     C                   D                     D
y aunque todo es de papel
             Em          Em                  Am7
   mientes tan bien           mmm...
C                                 C
    y aunque todo es de papel
D                Em7                   Em7                  Em                    Em
   mientes no se


Violão 1:

             G                    G
E|----------3---------|----------3---------|
B|--------2------2----|--------2------2----|
G|-----0-------0---0--|-----0-------0---0--|
D|--------------------|--------------------|
A|--------------------|--------------------|
E|--3-----------------|--3-----------------|

Violão 2:

E|---------7----------|---8-----7----------|
B|---------8----------|---8--------8-------|
G|------7-------------|---------------7----|
D|--9-----------------|---------------9----|
A|--------------------|--------------------|
E|--------------------|--------------------|



Violão 2:

                                                   G
E|---------7----------|---8-----7----------|------------3--|
B|---------8----------|---8--------8-------|----------3----|
G|------7-------------|---------------7----|--------0------|
D|--9-----------------|---------------9----|------0--------|
A|--------------------|--------------------|----2----------|
E|--------------------|--------------------|--3------------|
    Composição: Leonel Garcia / Nahuel SchajrisColaboração e revisão:
    • tiveron
    • kumirin

    Comentários 0

    140 .
    140 cancelar

    conseguiu tocar?

    covers

    Grave um vídeo tocando Mientes Tan Bien e mande pra gente!

    Ex.: http://www.youtube.com/watch?v=0IvSvIwGdwk
    ver covers de outras músicas »
    0:00 / 0:00

    Capítulos

      1 versão de violão dificuldade exibições contribuição e correção
      1 versão de guitarra dificuldade exibições contribuição e correção
      1 versão de cavaco dificuldade exibições contribuição e correção
      1 versão de teclado dificuldade exibições contribuição e correção
      2 versões de Guitar Proformatodownloadscontribuição
      play/pausefechar subir/descer velocidade
      6ª corda E5ª corda A4ª corda D3ª corda G2ª corda B1ª corda E
        acordes
        publicidad
        fechar
        ok