Amores Imperfeitos

Skank

 Skank
Tom: F
		
Intro 2x: G  F7M(9)
Violão 1:

E|-7------7-----7------7-----5------5--7----------
B|---8------8-----8------8-----8---------8--------
G|-----7------7-----7------7-----7---------7------
D|------------------------------------------------
A|------------------------------------------------
E|------------------------------------------------



E|-7------7-----7------0-----0------0-------------
B|---8------8-----8------6-----6------------------
G|-----7------7-----7------5-----5----------------
D|------------------------------------------------
A|------------------------------------------------
E|------------------------------------------------


Violão 2:

E|------------------------------------------------
B|------------------------------------------------
G|-5/7\5-4-5-4---------------------5-4-5/7--------
D|-------------7-5---5-7b8r7-5--------------------
A|-----------------7-----------7-8----------------
E|------------------------------------------------


Primeira Parte:
G
  Não precisa me lembrar
Não vou fugir de nada
F5(7M/9)                                  Em7
         Sinto muito se não fui feito um sonho seu

G
  Mas sempre fica alguma coisa
Alguma roupa pra buscar
    F5(7M/9)                      Em7
Eu posso afastar a mesa quando você precisar
Violão 2:

 G
E|-----------------------------------------
B|---3--------3--------3--------3----------
G|-----0--------0--------0--------0--------
D|-------0--------0--------0--------0------
A|-----------------------------------------
E|-3--------3--------3--------3------------


 F7M
E|---0-----0-----0-------------------------
B|-----1-----1-----------------------------
G|-------2-----2---------------------------
D|-3---------------------------------------
A|-----------------------------------------
E|-----------------------------------------


 Em7
E|---0-----------0-------------------------
B|-----3-----------3----3------------------
G|-------0-----------0---------------------
D|-----------------------------------------
A|-----------------------------------------
E|-0---------------------------------------


Refrão:
	  Am7		   G/B  C9
Sei que amores imperfeitos
         D5(9)	      G
São as flores da estação
Violão 2:

 Am               C          D         G
E|---------0-----------------------------3-
B|-1-----1-------0--1----1-----3--3------3-
G|-2---2------2-----0------0---2-----2---0-
D|-2----------2-----2----------0---------0-
A|-0----------0--2--3--3-----------------2-
E|---------------------------------------3-


(Intro)

Primeira Parte - com variação na letra:
G
  Eu não quero ver você
Passar a noite em claro
F5(7M/9)
         Sinto muito se não fui
          Em7
Seu mais raro amor

G
  E quando o dia terminar
E quando o sol se inclinar
    F5(7M/9)	                 Em7
Eu posso pôr uma toalha e te servir o jantar

Refrão:
	  Am7		   G/B  C9
Sei que amores imperfeitos
         D5(9)	      G
São as flores da estação

Am7
    Mentira se eu disser
               G
Que não penso mais em você
Violão 2:

E|-----------------------10----------------------
B|-----------------------------------------------
G|-5/7~-7/9~--14\-12\-10----7/9\-7\-5------------
D|-----------------------------------------------
A|-----------------------------------------------
E|-----------------------------------------------



E|-----------------------------------------------
B|-----------------------------------------------
G|-2/5--5/7~-7/9~-5~-5/7-------------------------
D|-----------------------------------------------
A|-----------------------------------------------
E|-----------------------------------------------


 Am          G
E|------1---------0-----0--------------
B|-1------2----3----3-----3------------
G|-2--------2--0------0-----0----------
D|-2-----------0-----------------------
A|-0--0--------------------------------
E|-------------3-----------------------


Segunda Parte:
Dm7                        C9
    Quantas páginas o amor    já mereceu
      Gm7(9)	            C9
Os filósofos não dizem nada
Que eu não possa dizer

Dm7                          C9
    Quantos versos sobre nós
Eu já guardei
         Gm7(9)                   Bb5(9)
Deixa a luz daquela sala acesa
      C9	  G  F5(7M/9)
E me peça pra voltar

( G  F5(7M/9) )
Violão 2:

E|-----------------------10----------------------
B|-----------------------------------------------
G|-5/7~-7/9~--14\-12\-10----7/9\-7\-5------------
D|-----------------------------------------------
A|-----------------------------------------------
E|-----------------------------------------------



E|-----------------------------------------------
B|-----------------------------------------------
G|-2/5--5/7~-7/9~-5~-5/7-------------------------
D|-----------------------------------------------
A|-----------------------------------------------
E|-----------------------------------------------


(Solo 2x)

Primeira Parte:
G
  Não precisa me lembrar
Não vou fugir de nada

F5(7M/9)			          Em7
         Sinto muito se não fui feito um sonho seu

Refrão:
	  Am7		   G/B  C9
Sei que amores imperfeitos
         D5(9)	      G
São as flores da estação
Am7
    Mentira se eu disser
               G
Que não penso mais em você

(Segunda Parte)

E|------------------------------------------------
B|------------------------------------------------
G|-5/7\5-4-5-4------------------------------------
D|-------------7-5---5-7b8r7-5--------------------
A|-----------------7-----------7------------------
E|------------------------------------------------


(Refrão 2x)


E|---7------7-------------------------------------
B|-----8------8-----------------------------------
G|-7------7------7--------------------------------
D|------------------------------------------------
A|------------------------------------------------
E|------------------------------------------------



E|---7------7------7------7-----5-----------------
B|-----8------8--------8----8-----8---------------
G|-7------7------7---7--------7-------------------
D|------------------------------------------------
A|------------------------------------------------
E|------------------------------------------------



E|-7------7-----7---------------------------------
B|---8------8-------------------------------------
G|-----7------7-----------------------------------
D|------------------------------------------------
A|------------------------------------------------
E|------------------------------------------------

Comentários 0

Composição: Chris Braide / Giosy Capuano / John O'Neill / Kay Rogers
Esse não é o compositor? Avise-nos.
Contribuição: Gaspa Correções: tarsiuslima , Jansen e mais 3 »
Exibir acordes »
publicidade
fechar