Skank

É Uma Partida de Futebol

322.282 exibições
Tom: A
Intro: A  D5  G  A  A7(9+) 4x

1-
   A                  D5
E|-----------------------------------------|
B|-2-2---2------------3-3-x--3---3-3-3-----|
G|-2-2-x-2-x----------2-2-x--2---2-2-2-----|
D|-2-2-x-2-x----------0-0-x--0---0-0-0-----|
A|-0-0-x-0-x--0-3h4------------------------|
E|-----------------------------------------|

2-
   G                 A   A7(9+)
E|-----------------------------------------|
B|-------------------2---13----------------|
G|-0-0-x-0-x---------2---12----------------|
D|-0-0-x-0-x---------2---11----------------|
A|-2-2-x-2-x---------0---0-----------------|
E|-3-3-x-3-x—-0-3/4------------------------|

3-
   G                 A   A7(9+)
E|-----------------------------------------|
B|-------------------2---13-13-------------|
G|-0-0-x-0-x---------2---12-12-------------|
D|-0-0-x-0-x---------2---11-11-------------|
A|-2-2-x-2-x---------0---0--0--------------|
E|-3-3-x-3-x—-0-3/4------------------------|


Refrão:

 A
Bola na trave não altera o placar

Bola na área sem ninguém pra cabecear

Bola na rede pra fazer o gol
      G
Quem não sonhou
                          A
Em ser um jogador de futebol


Primeira Parte:

      A
A bandeira no estádio é um estandarte

A flâmula pendurada na parede do quarto

O distintivo na camisa do uniforme
     G                                A
Que coisa linda é uma partida de futebol


Segunda Parte:

A  D  E  2x


1-
   A
E|-----------------------------------------|
B|-2-2-x---------2-2-----------------------|
G|-2-2-x---------2-2-----------------------|
D|-2-2-x---------2-2-----------------------|
A|-0-0-x--4-4-4--0-0-----------------------|
E|-----------------------------------------|

2-
   D
E|-2-2-x---------2-2-----------------------|
B|-3-3-x---------3-3-----------------------|
G|-2-2-x---------2-2-----------------------|
D|-0-0-x--4-4-4--0-0-----------------------|
A|-----------------------------------------|
E|-----------------------------------------|

3-
   E
E|-0-0-----------0-0-----------------------|
B|-0-0-----------0-0-----------------------|
G|-1-1-x---------1-1-----------------------|
D|-2-2-x---------2-2-----------------------|
A|-2-2-x---------2-2-----------------------|
E|-0-0-x--4-4-4--0-0-----------------------|


Repete a Primeira Parte:

 A
Posso morrer pelo meu time

Se ele perder, que dor, imenso crime

Eu posso chorar se ele não ganhar

Mas se ele ganha não adianta
           G                        A
Não há garganta que não pare de berrar
      A
A chuteira veste o pé descalço

O tapete da realeza é verde

Olhando pra bola eu vejo o Sol
        G
Está rolando agora 
                      A
É uma partida de futebol

        A
O meio campo é o lugar dos craques

Que vão levando o time todo pro ataque

O centroavante, o mais importante
           G                          A
Que emocionante é uma partida de futebol


Segunda Parte:

A  D  E  4x


Repete a Intro:

 A  D5  G  A  A7(9+) 2x


Repete a Primeira Parte:

         A
O meu goleiro é um homem de elástico

Os dois zagueiros têm a chave do cadeado

Os laterais fecham a defesa
           G                         A
Mas que beleza é uma partida de futebol


Repete o Refrão:

 A
Bola na trave não altera o placar

Bola na área sem ninguém pra cabecear

Bola na rede pra fazer o gol
      G
Quem não sonhou
                          A
Em ser um jogador de futebol


Repete a Primeira Parte:

        A
O meio campo é o lugar dos craques

Que vão levando o time todo pro ataque

O centroavante, o mais importante
           G                          A
Que emocionante é uma partida de futebol


Repete a Segunda Parte:

A  D  E  16x
    Composição: Nando Reis / Samuel RosaColaboração e revisão:
    • gustavofofao
    • Raul
    • FuLiA
    • LuCaS_gS
    • +3

    Comentários 1

    140 .
    140 cancelar

    conseguiu tocar?

    • Matheus
    • jack.silvano.37
    • matheusprofiro
    • Matheus
    • guilherme.guarda.96
    • evandro.mazer
    • expressoxxi
    • •••

    covers

    Grave um vídeo tocando É Uma Partida de Futebol e mande pra gente!

    Ex.: http://www.youtube.com/watch?v=0IvSvIwGdwk
    ver covers de outras músicas »
    0:00 / 0:00

    Capítulos

      2 versões de Guitar Proformatodownloadscontribuição
      1 versão de partiturasformatodownloadscontribuição
      play/pausefechar subir/descer velocidade
      6ª corda E5ª corda A4ª corda D3ª corda G2ª corda B1ª corda E
        acordes
        versão revisada gustavofofao instrutor de violão
        publicidad
        fechar
        ok