Jackie Tequila

Skank

 Skank
Obs importante:
Esse TAB é da versão Ao vivo da Música "Jackie Tequila".
Escute o CD que você vai pegar mais fácil o compasso da música.

para correções/sugestões:

Tom: C

introdução: "Yeah, Yo..."
G-|------------------------------
D-|------------------------------
A-|------------------------------
E-|-0------0-------0-------3/15\-

riff principal:
G-|-----------|-----------|-----------|-----------|
D-|----2-5-5-|-3-3-5-5-5-|----2-5-5-|-3-3-5-5-5-|
A-|-3--------|------------|-3--------|------------|
E-|----------|------------|-----------|------------|

riff 2: "Oh Jackie foi nascer..."
G-|-----------|-15h-----------|-----------|
D-|-----------|-----17-16-15-|-----------|
A-|-15----15-|---------------|-15-----15-|
E-|----17-----|--------------|-----17-----|

riff 3: "Jackie é uma menina..."
G-|-----------|-----------|-----------|-----------|
D-|----2-5-5-|-3-3-5-5-5-|----2-5-5-|-3-3-5-5-5-|
A-|-3--------|------------|-3--------|------------|
E-|----------|------------|-----------|------------|

basicamente, a música é toda nesse esquema. O Lelo varia algumas partes e faz algumas pausas também. Ele faz também alguns slides aqui e ali. Nada mais. Música muito boa e fácil de tocar, mesmo sendo um pouco enjoativa.

--------------------------------------------------

LEGENDA:
h: hammer on (tocar duas notas quase que juntas)
p: pull off! (parecido com o hammer on)
/ ou \: slide para cima ou para baixo (deslizar os dedos ao longo da corda) - ex: 15/5: você parte da 15 casa e desliza o dedo até chegar na casa 5.
b: bend (puxar a corda para cima ou para baixo, fazendo com que a mesma soe parecida com outra nota) - ex: 7b9: você parte da casa 7, se puxar para cima, essa vai soar como a casa 9.

Comentários 0

Composição: Chris Braide / Giosy Capuano / John O'Neill / Kay Rogers
Esse não é o compositor? Avise-nos.
Contribuição: eduardo
publicidade
fechar