Hero

Skillet

 Skillet
Tom: A
		
(intro)


E|---------------------------------------------------------------------------------------|
B|--------------------------------------10-10--------------------------------------------|
G|--------9-9-11-11-12-12-11-11---7-7----------12-12-11-11-------------------------------|
D|---------------------------------------------------------------------------------------|
A|---------------------------------------------------------------------------------------|
E|---------------------------------------------------------------------------------------|



E|--8------8-----8------8----------------------------------------------------------------|
B|-----12--- 12----12--------------------------------------------------------------------|
G|---------------------------------------------------------------------------------------|
D|---------------------------------------------------------------------------------------|
A|---------------------------------------------------------------------------------------|
E|---------------------------------------------------------------------------------------|


(primeira parte cantada)

E|---------------------------------------------------------------------------------------|
B|---------------------------------------------------------------------------------------|
G|---------------------------------------------------------------------------------------|
D|---------------------------------------------------------------------------------------|
A|--2---2------2---2----3--------2--|---5--5-4--2--0--5--4---5---------------------------|
E|--2---2------2---2---------------------------------------------------------------------|



E|---------------------------------------------------------------------------------------|
B|---------------------------------------------------------------------------------------|
G|---------------------------------------------------------------------------------------|
D|---------------------------------------------------------------------------------------|
A|--2---2------2---2----3--------2--|---5--5-4--2--0--3--2---5---------------------------|
E|--2---2------2---2---------------------------------------------------------------------|



E|---------------------------------------------------------------------------------------|
B|---------------------------------------------------------------------------------------|
G|---------------------------------------------------------------------------------------|
D|---------------------------------------------------------------------------------------|
A|--2---2------2---2----3--------2--|---5--5-4-5-|--2---2-----2---2----3--------2--------|
E|--2---2------2---2-----------------------------|--2---2-----2---2----------------------|



D|---------------------------------------------------------------------------------------|
A|-------------------------3----5--2-----------------------------------------------------|
E|----5-5-4-2-0--------------------------------------------------------------------------|


(pré refrão)

E|---------------------------------------------------------------------------------------|
B|---------------------------------------------------------------------------------------|
G|---------------------------------------------------------------------------------------|
D|----7---7------7----7----------------7--7---------10-----------------------------------|
A|----7---7------7----7----------------7--7---------10-----------------------------------|
E|----7---7------7----7----------------7-------------------------------------------------|



E|---------------------------------------------------------------------------------------|
B|---------------------------------------------------------------------------------------|
G|---------------------------------------------------------------------------------------|
D|----10---10------9----10------7---7---------10-----------------------------------------|
A|----10---10------9----10------7---7---------10-----------------------------------------|
E|----10---10------9----10------7---7---------10-----------------------------------------|



E|---------------------------------------------------------------------------------------|
B|---------------------------------------------------------------------------------------|
G|---------------------------------------------------------------------------------------|
D|----2---2------2-----------------------------------------------------------------------|
A|----2---2------2------3-----2----------------------------------------------------------|
E|----2---2------2-----------------------------------------------------------------------|

(obs: essa ultima tablatura é feita duas vezes e depois repete toda as tablaturas do pré refrão)


E|---------------------------------------------------------------------------------------|
B|---------------------------------------------------------------------------------------|
G|---------------------------------------------------------------------------------------|
D|---------------------------------------------------------------------------------------|
A|----2---2------2-----------------------------------------------------------------------|
E|----2---2------2-----------------------------------------------------------------------|


(refrão)
(uma guitarra faz a mesma tablatura da introdução e outra faz a base)
Texto Colunas
Alterar tom ½ tom ½ tom
afinação acordes na letra esconder tabs mais »

Comentários 30

  • pedro dietrick pedro dietrick: Postado em 25/08/2014 - 16:23

    Me ajudem numa duvida como faço para minha chave seletora fazer aquele barulho no inicio da musica...

  • mariaeduarda.limberger.12 mariaeduarda.limberger.12: Postado em 05/07/2014 01:33

    psé tem gente que ta pedindo cifra simplificada e video aulas, pq não sabem ler as tabs, eu aprendi as tabs no meu primeiro dia de aula

  • gabriel.h.dresch.9 gabriel.h.dresch.9: Postado em 08/05/2014 22:32

    q musica facil e o pessoal pedindo por vídeo aula e versões simplificadas kkkkkkk não sabem ler tabs kkkkkk

  • douglas.silasdasilvacruz.3 douglas.silasdasilvacruz.3: Postado em 08/04/2014 17:40

    tem q ter video aula po a musica é dificil de mais po
    sinplifica mais

  • agathavitoria.mendes agathavitoria.mendes: Postado em 16/12/2013 14:05

    olokooo,vcs conseguem simplificar a musica pra deixar so os acordes pra eu fazer um acustico ??

    • Caio Caio: Postado em 11/03/2014 11:09

      é msm ,eu n consigo aprender com essas paradinhas de linhas ai,n entendo nada po,queria ACORDES :/

  • Junior Junior: Postado em 25/08/2013 10:32

    Nuss, só pega o ritmo (que não eh mt dificil) de todas as partes da musica, e dps pegar os Power's ;D

  • Junior Junior: Postado em 25/08/2013 10:31

    NUSS precisam de video aula pra essa musica ??? KKKKKKKKKKKKKKKKKKKKKKKKKKKKK' bando de pitocos

  • daniel.luz.5205 daniel.luz.5205: Postado em 10/08/2013 18:57

    vamo la cade a video aula?

  • daniel.luz.5205 daniel.luz.5205: Postado em 03/08/2013 19:10

    Video aula, video aula...

Exibindo 10 de 30 comentários Mostrar mais ver todos »
Composição: Dernst Mile 11 / Galvão / James Gass / Rick Tiger / Ron Broder / Tony Markellis
Esse não é o compositor? Avise-nos.
Contribuição: Edu Leocádio Correções: Rebeca e mais 1 »
  1. Domingo de Manhã - Marcos e Belutti Manteve-se 101.796 exibições
  2. Pra Você - Onze:20 Manteve-se 49.968 exibições
  3. Até Você Voltar - Henrique e Juliano Manteve-se 49.616 exibições
  4. Logo Eu - Jorge e Mateus Manteve-se 42.912 exibições
  5. Recaídas - Henrique e Juliano Manteve-se 42.277 exibições
  6. Evidências - Chitãozinho & Xororó Manteve-se 37.230 exibições
  7. Só Os Loucos Sabem - Charlie Brown Jr. Manteve-se 32.006 exibições
  8. Give Me Love - Ed Sheeran Manteve-se 30.579 exibições
  9. Pais e Filhos - Legião Urbana Manteve-se 29.187 exibições
  10. Cuida Bem Dela - Henrique e Juliano Manteve-se 27.816 exibições
  1. Jorge e Mateus- Manteve-se 258.031 exibições
  2. Legião Urbana- Manteve-se 207.957 exibições
  3. Henrique e Juliano- Manteve-se 182.161 exibições
  4. Charlie Brown Jr.- Manteve-se 151.881 exibições
  5. Bruno e Marrone- Manteve-se 135.507 exibições
  6. Marcos e Belutti- Manteve-se 124.721 exibições
  7. Fernandinho- Manteve-se 119.559 exibições
  8. Luan Santana- Manteve-se 108.202 exibições
  9. Thalles Roberto- Manteve-se 94.668 exibições
  10. Victor e Leo- Manteve-se 91.922 exibições
Exibir acordes »

Cifras e tabs

Fórum Cifra Club

Aprenda

Cifra Club News

Mais Serviços Cifra Club ID

Studio Sol

©1996 - 2014 Cifra Club · o primeiro, maior e mais acessado do Brasil · 337 mil músicas · 6.2 milhões pessoas cadastradas

publicidade
fechar