Anastasia

Slash

 Slash
Tom: D
		

D|----------------------------|----------------------------|
A|-----------6----------------|-----------6----------------|
F|--------7-----7-------------|--------7-----7-------------|
C|-----7-----------7-----7----|-----7-----------7-----7----|
G|--5-----------------5-------|--5-----------------5-------|
D|----------------------------|----------------------------|




-----------1----------------|-----------1----------------|
--------3-----3-------------|--------3-----3-------------|
-----3-----------3-----3----|-----3-----------3-----3----|
----------------------------|----------------------------|
--1-----------------1-------|--1-----------------1-------|
----------------------------|----------------------------|




-----------1----------------|-----------1-----------1----|
--------3-----3-------------|--------3-----------3-------|
-----0-----------0-----0----|-----0-----------0----------|
----------------------------|----------------------------|
--2-----------------2-------|--------------2-------------|
----------------------------|--3-------------------------|




----------------------------|----------------------------|
-----------5-----------5----|----------------------------|
--------5-----5-------------|--5--------5--0-----0-------|
-----5-----------5----------|-----5-----------2----------|
--3-----------------3-------|--------3--------------3----|
----------------------------|----------------------------|




----------------------------|
-----------5-----------5----|
--------6-----------6-------|
-----5-----------5----------|
--4-------------------------|
--------------5-------------|




----------------------------------------------------|
--5--------5--------5-----3-----------2-------------|
----------------------------------------------------|
--5--------5--------5-----3-----------2-------------|
----------------------------------------------------|
--3--------3----------------------------------------|




----------------------------|-----------------------0----|
-----------6----------------|-----------6--------3-------|
--------7-----7-------------|--------7--------2----------|
-----7-----------7-----7----|-----7----------------------|
--5-----------------5-------|--5-----------3-------------|
----------------------------|----------------------------|




-----------1-----------0----|----------------------------|
--------3-----------2-------|-----------5----------------|
-----3-----------2----------|--------5--------------4----|
----------------------------|-----5--------------5-------|
--1-----------0-------------|--3--------------5----------|
----------------------------|--------------3-------------|




----------------------------|-----------------0----------|
-----------3-----------1----|--------------0-----0-------|
--------3-----------2-------|-----------1-----------1----|
-----3-----------3----------|--------2-------------------|
--1-------------------------|-----2----------------------|
--------------1-------------|--0-------------------------|




----------------------------|
----------------------------|
-----1-----------------0----|
--2--------2--------2-------|
--------2--------0----------|
--------------0-------------|




--------------------------0-----------------------3-----------------------3-----|
--2-----------------------------------------------------------------------------|
--------------------------------------------------------------------------------|
--------------------------------------------------------------------------------|
--------------------------------------------------------------------------------|
--------------------------------------------------------------------------------|




------------------3-----------------------1--------3-----------1-----------0----|
--------------------------------------------------------------------------------|
--------------------------------------------------------------------------------|
--------------------------------------------------------------------------------|
--------------------------------------------------------------------------------|
--------------------------------------------------------------------------------|



-------1 ----------------------1----|

------------------------------------|
------------------------------------|
------------------------------------|
------------------------------------|
------------------------------------|




--0-------------------------------------------------|
--------2-----------5-----------------6--5--6--5----|
--------------2 ----2-------------------------------|
----------------------------------------------------|
----------------------------------------------------|
----------------------------------------------------|




----------------------------------------------------|-------|-------|
--6--5--6--5--6--5--6--5--6--5--6--5--6--5--6--5 ---|--5----|-------|
----------------------------------------------------|-------|-------|
----------------------------------------------------|-------|-------|
----------------------------------------------------|-------|-------|
----------------------------------------------------|-------|-------|




-----13-12-13-10-13-12-13---|-----13-12-13-10-13-12-13---|
--10------------------------|--10------------------------|
----------------------------|----------------------------|
----------------------------|----------------------------|
----------------------------|----------------------------|
----------------------------|----------------------------|




-----13-12-13-10-13-12-13---|-----13-12-13-10-13-12-13---|
--11------------------------|--11------------------------|
----------------------------|----------------------------|
----------------------------|----------------------------|
----------------------------|----------------------------|
----------------------------|----------------------------|




-----15-13-15-12-15-13-15---|-----15-13-15-12-15-13-15---|
--12------------------------|--12------------------------|
----------------------------|----------------------------|
----------------------------|----------------------------|
----------------------------|----------------------------|
----------------------------|----------------------------|




-----15-12-15-13-15-12-15---|-----15-12-15-13-15-12-15---|
--13------------------------|--13------------------------|
----------------------------|----------------------------|
----------------------------|----------------------------|
----------------------------|----------------------------|
----------------------------|----------------------------|




-----17-15-17-12-17-15-17---|-----17-15-17-12-17-15-17---|
--14------------------------|--14------------------------|
----------------------------|----------------------------|
----------------------------|----------------------------|
----------------------------|----------------------------|
----------------------------|----------------------------|




-----17-13-17-12-17-13-17---|-----17-13-17-12-17-13-17---|
--15------------------------|--15------------------------|
----------------------------|----------------------------|
----------------------------|----------------------------|
----------------------------|----------------------------|
----------------------------|----------------------------|




-----18-17-18----17-15-17---|-----15-14-15----15-14-15---|
--15----------14------------|--13----------12------------|
----------------------------|----------------------------|
----------------------------|----------------------------|
----------------------------|----------------------------|
----------------------------|----------------------------|




-----13-12-13----13-12-13---|-----12-10-12-x--12-10-12---|
--11----------10------------|--9-------------------------|
----------------------------|----------------------------|
----------------------------|----------------------------|
----------------------------|----------------------------|
----------------------------|----------------------------|




-----8--7--8-----7-----7----|-----7-----7----------------|
--10----------9-----10------|--8-----10-------10-8--10---|
----------------------------|--------------7-------------|
----------------------------|----------------------------|
----------------------------|----------------------------|
----------------------------|----------------------------|




-----5-----5----------------|
--6-----8--------8--7--8----|
--------------5-------------|
----------------------------|
----------------------------|
----------------------------|




----------------------------------------------------|--10 --|--10~--|
--8-----7--6--5-------------------------------------|-------|-------|
----------------------------------------------------|-------|-------|
----------------------------------------------------|-------|-------|
----------------------------------------------------|-------|-------|
----------------------------------------------------|-------|-------|




----------------------------|----------------------------|
----------------------------|----------------------------|
----------------------------|----------------------------|
----------------------------|----------------------------|
----------------------------|----------------------------|
--5--0--5--0--3--5--0--5----|--0--5--3--0--3--0--3--5----|




----------------------------|----------------------------|
----------------------------|----------------------------|
----------------------------|----------------------------|
----------------------------|----------------------------|
----------------------------|----------------------------|
--5--0--5--0--3--5--0--5----|--0--5--3--0--3--0--3--5----|




----------------------------|----------------------------|
----------------------------|----------------------------|
----------------------------|----------------------------|
----------------------------|----------------------------|
----------------------------|----------------------------|
--5--0--5--0--3--5--0--5----|--0--5--3--0--3--0--3--5----|




--------5-----------5-------------------------------|
--------5-----------5-----------------------5-------|
--x-----------x-----------7-----5-----7-------------|
-----------------------------------7----------------|
----------------------------------------------------|
----------------------------------------------------|




--------------------------------------------------------------------------------|
--------------------------------------------------------------------------------|
--5-----------------------------------------------------------------------------|
--------------7-----------5-----------------------5-----7-----------------5--7 -|
--------------------------------------7-----------------------------------------|
--------------------------------------------------------------------------------|




--------------------|----------------------------|----------------------------|
--------------------|----------------------------|----------------------------|
--------------------|----------------------------|----------------------------|
---------------7----|----------------------------|----------------------------|
--------------------|----------------------------|----------------------------|
--------------------|--5--0--5--0--3--5--0--5----|--0--5--3--0--3--0--3--5----|




----------------------------|----------------------------|
----------------------------|----------------------------|
----------------------------|----------------------------|
----------------------------|----------------------------|
----------------------------|----------------------------|
--5--0--5--0--3--5--0--5----|--0--5--3--0--3--0--3--5----|




----------------------------|----------------------------|
----------------------------|----------------------------|
----------------------------|----------------------------|
----------------------------|----------------------------|
----------------------------|----------------------------|
--5--0--5--0--3--5--0--5----|--0--5--3--0--3--0--3--5----|




----------------------------|----------------------------|
----------------------------|----------------------------|
----------------------------|----------------------------|
----------------------------|----------------------------|
----------------------------|--------3-------------------|
--5--0--5--0--3-----0--5----|--0--5--------3--0--3--4----|




----------------------------|----------------------------|
----------------------------|----------------------------|
----------------------------|----------------------------|
----------------------------|----------------------------|
----------------------------|----------------------------|
--5--0--5--0--3--5--0--5----|--0--5--3--0--3--0--3--5----|




----------------------------|----------------------------|
----------------------------|----------------------------|
----------------------------|----------------------------|
----------------------------|----------------------------|
----------------------------|----------------------------|
--5--0--5--0--3--5--0--5----|--0--5--3--0--3--0--3--5----|




----------------------------|----------------------------|
----------------------------|----------------------------|
----------------------------|----------------------------|
----------------------------|----------------------------|
----------------------------|----------------------------|
--5--0--5--0--3--5--0--5----|--0--5--3--0--3--0--3--5----|




----------------------------|-------|----------------------------|
----------------------------|-------|--6-----------6--------6----|
-----------------------2 ---|--2----|--7-----------7--------7----|
-----------------------2 ---|--2----|--7-----------7--------7----|
-----------------------0 ---|--0----|--5-----5--5--5-----5--5----|
--5--0--3--0--3--5--0-------|-------|----------------------------|




----------------------------|----------------------------|
----------------------------|----------------------------|
-----7--------7--7----------|--7-----------7--------7----|
-----7--------7--7----------|--8-----------8--------8----|
-----5--5-----5--5----------|--8-----------8--------8----|
-----------------------6----|--6-----6--6--6-----6--6----|




----------------------------|----------------------------|
----------------------------|----------------------------|
-----7--------7--7----------|----------------------------|
-----8--------8--8----------|--5-----------5--------5----|
-----8--------8--8----------|--5-----------5--------5----|
-----6--6-----6--6----------|--3-----3--3--3-----3--3----|




----------------------------|----------------------------|
----------------------------|----------------------------|
----------------------------|--5-----------5--------5----|
--------5-----5--5----------|--5-----------5--------5----|
--------5-----5--5----------|--3-----3--3--3-----3--3----|
--------3-----3--3-----3----|----------------------------|




----------------------------|----------------------------|
----------------------------|--6-----------6--------6----|
-----5--------5--5-----5----|--7-----------7--------7----|
-----5--------5--5-----5----|--7-----------7--------7----|
-----3-----3--3--3----------|--5-----5--5--5-----5--5----|
----------------------------|----------------------------|




----------------------------|----------------------------|
----------------------------|----------------------------|
-----7--------7--7----------|--7-----------7--------7----|
-----7--------7--7----------|--8-----------8--------8----|
-----5--5-----5--5----------|--8-----------8--------8----|
-----------------------6----|--6-----6--6--6-----6--6----|




----------------------------|----------------------------|
----------------------------|----------------------------|
-----7--------7--7----------|--5-----------5--------5----|
-----8--------8--8----------|--5-----------5--------5----|
-----8--------8--8----------|--3-----3--3--3-----3--3----|
-----6--6-----6--6----------|----------------------------|




----------------------------|
----------------------------|
-----5--------5--5-----5----|
-----5--------5--5-----5----|
-----3-----3--3--3----------|
----------------------------|




--------------------------------------------0 ------|--0----|
----------------------------------------------------|-------|
--2-----------------------------------------2 ------|--2----|
--2-----------------------------------------2 ------|--2----|
--0-----------0-----0-----0-----1--0--------0 ------|--0----|
--------------------------------------3-------------|-------|




----------------------------|----------------------------|
----------------------------|----------------------------|
----------------------------|----------------------------|
----------------------------|----------------------------|
----------------------------|----------------------------|
--5--0--5--0--3-----0--5----|--0--5--3-----5--0--3-------|




----------------------------|----------------------------|
----------------------------|----------------------------|
----------------------------|----------------------------|
----------------------------|----------------------------|
----------------------------|----------------------------|
--5--0--5--0--3--5--0--5----|--0--5--3--0--3--0--3--5----|




----------------------------|----------------------------|
-----------------------3 ---|--3--2----------------------|
----------------------------|--------2-----0-------------|
----------------------------|-----------2-----2--0-------|
----------------------------|-----------------------4----|
--5--0--5--0--3--5--0-------|----------------------------|




----------------------------|----------------------------|
----------------------------|----------------------------|
----------------------------|----------------------------|
----------------------------|----------------------------|
----------------------------|----------------------------|
--5M-0M-5M-0M-3M-5M-0M-5M---|--0M-5M-3M-0M-3M-0M-3M-5M---|




----------------------------|----------------------------|
----------------------------|----------------------------|
----------------------------|----------------------------|
----------------------------|----------------------------|
----------------------------|----------------------------|
--5M-0M-5M-0M-3M-5M-0M-5M---|--0M-5M-3M-0M-3M-0M-3M-5M---|




----------------------------|----------------------------|
----------------------------|----------------------------|
----------------------------|----------------------------|
----------------------------|----------------------------|
----------------------------|----------------------------|
--5M-0M-5M-0M-3M-5M-0M-5M---|--0M-5M-3M-0M-3M-0M-3M-5M---|




----------------------------|----------------------------|
----------------------------|----------------------------|
----------------------------|----------------------------|
----------------------------|--5-----5-------------------|
-----6--5-----5-------------|-----7-----5b----3--5--3----|
--5--------------0--3--0----|----------------------------|




----------------------------|----------------------------|
----------------------------|----------------------------|
----------------------------|----------------------------|
----------------------------|----------------------------|
----------------------------|----------------------------|
--5M-0M-5M-0M-3M-5M-0M-5M---|--0M-5M-3M-0M-3M-0M-3M-5M---|




----------------------------|----------------------------|
----------------------------|----------------------------|
----------------------------|----------------------------|
----------------------------|----------------------------|
----------------------------|----------------------------|
--5M-0M-5M-0M-3M-5M-0M-5M---|--0M-5M-3M-0M-3M-0M-3M-5M---|




----------------------------|----------------------------|
----------------------------|----------------------------|
----------------------------|----------------------------|
----------------------------|----------------------------|
----------------------------|----------------------------|
--5M-0M-5M-0M-3M-5M-0M-5M---|--0M-5M-3M-0M-3M-0M-3M-5M---|




----------------------------|-------|----------------------------|
----------------------------|-------|--6-----------6--------6----|
-----------------------2 ---|--2----|--7-----------7--------7----|
-----------------------2 ---|--2----|--7-----------7--------7----|
-----------------------0 ---|--0----|--5-----5--5--5-----5--5----|
--5M-0M-5M-0M-3M-5M-0-------|-------|----------------------------|




----------------------------|----------------------------|
-----6--------6--6----------|----------------------------|
-----7--------7--7----------|--7-----------7--------7----|
-----7--------7--7----------|--8-----------8--------8----|
-----5--5-----5--5----------|--8-----------8--------8----|
-----------------------6----|--6-----6--6--6-----6--6----|




----------------------------|----------------------------|
----------------------------|----------------------------|
-----7--------7--7----------|----------------------------|
-----8--------8--8----------|--5-----------5--------5----|
-----8--------8--8----------|--5-----------5--------5----|
-----6--6-----6--6----------|--3-----3--3--3-----3--3----|




----------------------------|----------------------------|
----------------------------|----------------------------|
----------------------------|--5-----------5--------5----|
--------5-----5--5----------|--5-----------5--------5----|
--------5-----5--5----------|--3-----3--3--3-----3--3----|
--------3-----3--3-----3----|----------------------------|




----------------------------|----------------------------|
----------------------------|--6-----------6--------6----|
-----5--------5--5-----5----|--7-----------7--------7----|
-----5--------5--5-----5----|--7-----------7--------7----|
-----3-----3--3--3----------|--5-----5--5--5-----5--5----|
----------------------------|----------------------------|




----------------------------|----------------------------|
----------------------------|----------------------------|
-----7--------7--7----------|--7-----------7--------7----|
-----7--------7--7----------|--8-----------8--------8----|
-----5--5-----5--5----------|--8-----------8--------8----|
-----------------------6----|--6-----6--6--6-----6--6----|




----------------------------|----------------------------|
----------------------------|----------------------------|
-----7--------7--7----------|--5-----------5--------5----|
-----8--------8--8----------|--5-----------5--------5----|
-----8--------8--8----------|--3-----3--3--3-----3--3----|
-----6--6-----6--6----------|----------------------------|




----------------------------|
----------------------------|
-----5--------5--5-----5----|
-----5--------5--5-----5----|
-----3-----3--3--3----------|
----------------------------|




--------------------------------------------0 ------|--0----|
----------------------------------------------------|-------|
--2-----------------------------------------2 ------|--2----|
--2-----------------------------------------2 ------|--2----|
--0-----------0-----0-----0-----1--0--------0 ------|--0----|
--------------------------------------3-------------|-------|




----------------------------|----------------------------|
----------------------------|----------------------------|
----------------------------|----------------------------|
-----5--------4--------3----|--------3-----2--3--2--0----|
--------5--------5----------|--5-------------------------|
--3--------3--------3-------|-----3-----3----------------|




----------------------------|----------------------------|
----------------------------|----------------------------|
----------------------------|----------------------------|
-----5--------4--------3----|--------3-----2--3--2--0----|
--------5--------5----------|--5-------------------------|
--3--------3--------3-------|-----3-----3----------------|




----------------------------|----------------------------|
----------------------------|----------------------------|
----------------------------|----------------------------|
-----5--------4--------3----|--------3-----2--3--2--0----|
--------5--------5----------|--5-------------------------|
--3--------3--------3-------|-----3-----3----------------|




----------------------------|----------------------------|
----------------------------|----------------------------|
--0--12-0--0--11-0--0--10---|--0M-0M-10-0--9--10-9--7----|
----------------------------|----------------------------|
----------------------------|----------------------------|
----------------------------|----------------------------|




-----13-12-13-10-13-12-13---|-----13-12-13-10-13-12-13---|
--10------------------------|--10------------------------|
----------------------------|----------------------------|
----------------------------|----------------------------|
----------------------------|----------------------------|
----------------------------|----------------------------|




-----13-12-13-10-13-12-13---|-----13-12-13-10-13-12-13---|
--11------------------------|--11------------------------|
----------------------------|----------------------------|
----------------------------|----------------------------|
----------------------------|----------------------------|
----------------------------|----------------------------|




-----15-13-15-12-15-13-15---|-----15-13-15-12-15-13-15---|
--12------------------------|--12------------------------|
----------------------------|----------------------------|
----------------------------|----------------------------|
----------------------------|----------------------------|
----------------------------|----------------------------|




-----15-12-15-13-15-12-15---|-----15-12-15-13-15-12-15---|
--13------------------------|--13------------------------|
----------------------------|----------------------------|
----------------------------|----------------------------|
----------------------------|----------------------------|
----------------------------|----------------------------|




-----17-15-17----17-15-17---|-----17-15-17----17-15-17---|
--14----------17------------|--14----------17------------|
----------------------------|----------------------------|
----------------------------|----------------------------|
----------------------------|----------------------------|
----------------------------|----------------------------|




-----17-13-17----17-13-17---|-----17-13-17----17-13-17---|
--15----------17------------|--15----------17------------|
----------------------------|----------------------------|
----------------------------|----------------------------|
----------------------------|----------------------------|
----------------------------|----------------------------|




-----18-17-18----17-15-17---|-----15-14-15----15-14-15---|
--15----------14------------|--13----------12------------|
----------------------------|----------------------------|
----------------------------|----------------------------|
----------------------------|----------------------------|
----------------------------|----------------------------|




-----13-12-13----13-12-13---|-----12-10-12-12-12-10-12---|
--11----------10------------|--9-------------------------|
----------------------------|----------------------------|
----------------------------|----------------------------|
----------------------------|----------------------------|
----------------------------|----------------------------|



--12 ---------------------------------12~------10---|

--------------------------------------------10------|
----------------------------------------------------|
----------------------------------------------------|
----------------------------------------------------|
----------------------------------------------------|




--------------------------------------10------------|
--13b------------------------------------13-10-13 --|
----------------------------------------------------|
----------------------------------------------------|
----------------------------------------------------|
----------------------------------------------------|



----------------------------------------------------|
--13 ---------------------13~------15-13----16 -----|
-----------------------------------------14---------|
----------------------------------------------------|
----------------------------------------------------|
----------------------------------------------------|



----------------------------------------------------|
--16~---------------------------------17b---15-16 --|
----------------------------------------------------|
----------------------------------------------------|
----------------------------------------------------|
----------------------------------------------------|




----------------------------|--15 ---------15~15b--------|
--16~---------------15------|----------------------------|
-----------------------14---|----------------------------|
----------------------------|----------------------------|
----------------------------|----------------------------|
----------------------------|----------------------------|




--15~---------------------------------------------------------------------13----|
--------------------------------------------------------------------------------|
--------------------------------------------------------------------------------|
--------------------------------------------------------------------------------|
--------------------------------------------------------------------------------|
--------------------------------------------------------------------------------|




---------------------15----------13----------12---------------------|
--------------------------------------------------------------------|
--------------------------------------------------------------------|
--------------------------------------------------------------------|
--------------------------------------------------------------------|
--------------------------------------------------------------------|




--13----------12-13-12-12 ---------------12b--------|
----------------------------------------------------|
----------------------------------------------------|
----------------------------------------------------|
----------------------------------------------------|
----------------------------------------------------|




----------------------------------------------------|
--13----13~---------------------------------10s13---|
-----12---------------------------------------------|
----------------------------------------------------|
----------------------------------------------------|
----------------------------------------------------|



-----------------------12---|--12 12b12b11 --|
--14 ---------14-14-15------|----------------|
----------------------------|----------------|
----------------------------|----------------|
----------------------------|----------------|
----------------------------|----------------|



--11b---------12----------10----------12----------13----12----10----------13----|
--------------------------------------------------------------------------------|
--------------------------------------------------------------------------------|
--------------------------------------------------------------------------------|
--------------------------------------------------------------------------------|
--------------------------------------------------------------------------------|




------10-12-10------|
---------------13---|
--------------------|
--------------------|
--------------------|
--------------------|




-----------10---------------------------------------------------------------|
--13----------------13b---------------------------------------17----18------|
--------------------------------------------------------19------------------|
----------------------------------------------------------------------------|
----------------------------------------------------------------------------|
----------------------------------------------------------------------------|




-----------17-18-17---------------------|
--17-18-20----------20-18-17----17-18---|
-----------------------------19---------|
----------------------------------------|
----------------------------------------|
----------------------------------------|




--------------------------17----------------------18-------17-------------------|
--20----------------------------------------------------------------20-------18-|
--------------------------------------------------------------------------------|
--------------------------------------------------------------------------------|
--------------------------------------------------------------------------------|
--------------------------------------------------------------------------------|




--------------------------------------------------------------------------------|
------17-------------------------------17----------------------18---------------|
---------------19---------------------------------------------------------------|
--------------------------------------------------------------------------------|
--------------------------------------------------------------------------------|
--------------------------------------------------------------------------------|




-------------------------------17----------------------18 ----------------------|
-------20-----------------------------------------------------------------------|
--------------------------------------------------------------------------------|
--------------------------------------------------------------------------------|
--------------------------------------------------------------------------------|
--------------------------------------------------------------------------------|




-----------------------------------------------18b--|
----------------------------------------------------|
----------------------------------------------------|
----------------------------------------------------|
----------------------------------------------------|
----------------------------------------------------|




--18----------17----------------------18----------17----18----17----------------|
--------------------------20----------------------------------------20----------|
--------------------------------------------------------------------------------|
--------------------------------------------------------------------------------|
--------------------------------------------------------------------------------|
--------------------------------------------------------------------------------|




------17------------------------------------------------------------|-------|
20----------20----18----------18-------17---------------------------|-------|
------------------------------------------------19-------19 --------|--19~--|
--------------------------------------------------------------------|-------|
--------------------------------------------------------------------|-------|
--------------------------------------------------------------------|-------|




--15-17-15----15------------|
-----------18----18-17-15---|
----------------------------|
----------------------------|
----------------------------|
----------------------------|




--12-13-12-10-12----10----------------10------------|
--------------------------13----11----------13------|
----------------------------------------------------|
----------------------------------------------------|
----------------------------------------------------|
----------------------------------------------------|




----------------------------------------------------|----------|
--11-13-11----10----11----10-11-10----8-------------|----------|
--------------------------------------------10------|--9--9s---|
----------------------------------------------------|----------|
----------------------------------------------------|----------|
----------------------------------------------------|----------|




-----------------------------------------15 --------|
--15b---------------------15----13------------------|
----------------------------------------------------|
----------------------------------------------------|
----------------------------------------------------|
----------------------------------------------------|




--15b---------------------------18 -----------------|--18~--|--18 18 --|--18~--|
--------------------------17------------------------|-------|----------|-------|
-----------------------------19---------------------|-------|----------|-------|
----------------------------------------------------|-------|----------|-------|
----------------------------------------------------|-------|----------|-------|
----------------------------------------------------|-------|----------|-------|




----------------------------|----------------------------|
----------------------------|----------------------------|
--7-----------7--------7----|-----7--------7--7----------|
--8-----------8--------8----|-----8--------8--8----------|
--8-----------8--------8----|-----8--------8--8----------|
--6-----6--6--6-----6--6----|-----6--6-----6--6----------|




----------------------------|----------------------------|
----------------------------|----------------------------|
----------------------------|----------------------------|
--5-----------5--------5----|--------5-----5--5----------|
--5-----------5--------5----|--------5-----5--5----------|
--3-----3--3--3-----3--3----|--------3-----3--3-----3----|




--------------0-----1--0----|--------0-------------------|
----------------------------|--3--1-----3--1-----1-------|
----------------------------|-----------------2-----2----|
--------0--2----------------|----------------------------|
--3-------------------------|----------------------------|
----------------------------|----------------------------|




----------------------------|----------------------------|
--6-----------6--------6----|----------------------------|
--7-----------7--------7----|-----7--------7--7----------|
--7-----------7--------7----|-----7--------7--7----------|
--5-----5--5--5-----5--5----|-----5--5-----5--5----------|
----------------------------|-----------------------6----|




----------------------------|----------------------------|
----------------------------|----------------------------|
--7-----------7--------7----|-----7--------7--7----------|
--8-----------8--------8----|-----8--------8--8----------|
--8-----------8--------8----|-----8--------8--8----------|
--6-----6--6--6-----6--6----|-----6--6-----6--6----------|




----------------------------|----------------------------|
----------------------------|----------------------------|
----------------------------|----------------------------|
--5-----------5--------5----|--------5-----5--5----------|
--5-----------5--------5----|--------5-----5--5----------|
--3-----3--3--3-----3--3----|--------3-----3--3-----3----|




----------------------------|----------------------------|
--------------5--------5----|--5--5b-------5-------------|
-----------5--------5-------|-----------5-----5----------|
--------5s------------------|-----------------------5----|
--3-------------------------|----------------------------|
----------------------------|----------------------------|




----------------------------|----------------------------|
--6-----------6--------6----|----------------------------|
--7-----------7--------7----|--------9--------10---------|
--7-----------7--------7----|----------------------------|
--5-----5--5--5-----5--5----|--------7--------8----------|
----------------------------|----------------------------|




----------------------------|----------------------------|
----------------------------|----------------------------|
--7-----------7--------7----|--------9--------10---------|
--8-----------8--------8----|----------------------------|
--8-----------8--------8----|--------7--------8----------|
--6-----6--6--6-----6--6----|----------------------------|




----------------------------|----------------------------|
----------------------------|----------------------------|
----------------------------|--------10-------9----------|
--5-----------5--------5----|----------------------------|
--5-----------5--------5----|--------8--------7----------|
--3-----3--3--3-----3--3----|----------------------------|




----------------------------|----------------------------|
----------------------------|----------------------------|
--5-----------5--------5----|--------9--------10---------|
--5-----------5--------5----|----------------------------|
--3-----3--3--3-----3--3----|--------7--------8----------|
----------------------------|----------------------------|




----------------------------|----------------------------|
--6-----------6--------6----|----------------------------|
--7-----------7--------7----|--------9--------10---------|
--7-----------7--------7----|----------------------------|
--5-----5--5--5-----5--5----|--------7--------8----------|
----------------------------|----------------------------|




----------------------------|----------------------------|
----------------------------|----------------------------|
--7-----------7--------7----|--------10-------9----------|
--8-----------8--------8----|----------------------------|
--8-----------8--------8----|--------8--------7----------|
--6-----6--6--6-----6--6----|----------------------------|




----------------------------|----------------------------|
----------------------------|----------------------------|
--5-----------5--------5----|--------9--------7----------|
--5-----------5--------5----|----------------------------|
--3-----3--3--3-----3--3----|--------7--------5----------|
----------------------------|----------------------------|




----------------------------|-------|-------|----------------------------|
----------------------------|-------|-------|----------------------------|
--6--------7--------9-------|--14---|-------|----------------------------|
----------------------------|-------|-------|----------------------------|
--4--------5--------7-------|--12---|-------|----------------------------|
----------------------------|-------|-------|-----2 ----------------2b---|




-------|-------|-------|-------|-------|-------|----------------------------|
-------|-------|-------|-------|-------|-------|----------------------------|

--6 ---|--6----|-------|-------|-------|-------|----------------------------|
--7 ---|--7 ---|--7----|-------|-------|-------|-----------7----------------|
--7 ---|--7 ---|--7 ---|--7----|-------|-------|--7--8--10----8--10-8--7----|
--5 ---|--5 ---|--5 ---|--5 ---|--5----|-------|----------------------------|



----------------------------------------------------|
----------------------------------------------------|
----------------------------------------------------|
--5-------------------------------------------------|
--------8-----7--8--7--5--7-----5-----4-------------|
--------------------------------------------5-------|




----------------------------|----------------------------|
----------------------------|----------------------------|
----------------------------|----------------------------|
--------5-------------------|-----------------------5----|
--5--4-----4--5--7--5--4----|--5--4--7--4--5--7--8-------|
----------------------------|----------------------------|




----------------------------|
----------------------------|
----------------------------|
--------5--------5----------|
--8--7-----8--7-----7--8----|
----------------------------|




----------------------------------------------------|
----------------------------------------------------|
----------------------------------------------------|
--5-----------5-----------7-----------5-----7-------|
--------7--8--------8-----------8-------------------|
----------------------------------------------------|




----------------------------------------------------|
----------------------------------------------------|
----------------------------------------------------|
--8.----7--8--7--5-----7.----5--7--5--------5.------|
--------------------8-----------------8--7----------|
----------------------------------------------------|




--------------------------------------------------------------------------------|
--------------------------------------------------------------------------------|
--------------------------------------------------------------------------------|
--------------------------------------------------------------------------------|
--8--------10-------8--------7--------7-----------------5-----------------7-----|
--------------------------------------------------------------------------------|




--------------------------------------------------------------------|
--------------------------------------------------------------------|
--------------------------------------------------------------------|
--------------------------------------------------------------------|
------------8-----------------5-----------7-----------5-------------|
--------------------------------------------------------------------|




----------------------------|-------|-------|----------------------------|
----------------------------|-------|-------|----------------------------|
----------------------------|-------|--6 ---|--6~----------6--7--9-------|
----------------------------|-------|-------|--------7-------------------|
--4~----------------4--7----|-------|-------|----------------------------|
----------------------------|--5~---|-------|----------------------------|




----------------------------|----------------------------|
----------------------------|----------------------------|
--9-----9-----7--7--7--7 ---|--7 ----------7--6--7--9----|
----------------------------|----------------------------|
----------------------------|----------------------------|
----------------------------|----------------------------|




----------------------------|----------------------|
----------------------------|----------------------|
--10----------------9--10---|--12-------10-9--10---|
----------------------------|----------------------|
----------------------------|----------------------|
----------------------------|----------------------|




----------------------------------------------------|
----------------------------------------------------|
--9-----10-9--7-----9-----7-----9-----7-----7 ------|
----------------------------------------------------|
----------------------------------------------------|
----------------------------------------------------|




----------------------------|----------------------------|
----------------------------|--10----10 -----------------|
--7b----------------7--9----|-----9----------------------|
----------------------------|----------------------------|
----------------------------|----------------------------|
----------------------------|----------------------------|




----------------------------|----------------------------|
--10-------------10 --------|--10b---------------10-10 --|
--------------9-------------|----------------------------|
----------------------------|----------------------------|
----------------------------|----------------------------|
----------------------------|----------------------------|




----------------------------|
--10----------------10-11---|
----------------------------|
----------------------------|
----------------------------|
----------------------------|




----------------------------------------------------|
--11b---------11----------10----11-------10 --------|
----------------------------------------------------|
----------------------------------------------------|
----------------------------------------------------|
----------------------------------------------------|




--------------------------------------------------------------------------------|
--10-------11----10----8-----------11----------10----------11----10----8--------|
--------------------------------------------------------------------------------|
--------------------------------------------------------------------------------|
--------------------------------------------------------------------------------|
--------------------------------------------------------------------------------|



--------------------|----------------------------|----------------------------|
---10 ---------10---|--------10-------10---------|----------------------------|
--------------------|--9--------7--------6 ------|--6-----6s------------------|
--------------------|----------------------------|----------------------------|
--------------------|----------------------------|----------------------------|
--------------------|----------------------------|----------------------------|



-------|----------------------------|----------------------------|
--15b--|--15b---15b---15-14-15-15 --|--15----17~------18 --------|
-------|----------------------------|----------------------------|
-------|----------------------------|----------------------------|
-------|----------------------------|----------------------------|
-------|----------------------------|----------------------------|




----------------|----------------------------|
--18~------18b--|--18b------18b------18b-----|
----------------|----------------------------|
----------------|----------------------------|
----------------|----------------------------|
----------------|----------------------------|




----------------------------------------------------|
--18.---17.---18.---17-18-17-15-18----17-18-17-15---|
----------------------------------------------------|
----------------------------------------------------|
----------------------------------------------------|
----------------------------------------------------|




--------------------------------------------------------------------------------|
--17.---------15----17----15----17.------15----17-15-14----15----14----15----15-|
--------------------------------------------------------------------------------|
--------------------------------------------------------------------------------|
--------------------------------------------------------------------------------|
--------------------------------------------------------------------------------|




--------------------|-------|--15 ---------------15b15 --|
---14---------------|-------|----------------------------|
---------14 --------|--14---|----------------------------|
--------------------|-------|----------------------------|
--------------------|-------|----------------------------|
--------------------|-------|----------------------------|




--15b---15----13----13-15-13-12-15-13-15----13-12---|
----------------------------------------------------|
----------------------------------------------------|
----------------------------------------------------|
----------------------------------------------------|
----------------------------------------------------|




--15----13-15-13-12-13-15----13-15-13-12-13-15------|
----------------------------------------------------|
----------------------------------------------------|
----------------------------------------------------|
----------------------------------------------------|
----------------------------------------------------|




--15----13-15-13-12-13-15----13-15-13-12-13-15------|
----------------------------------------------------|
----------------------------------------------------|
----------------------------------------------------|
----------------------------------------------------|
----------------------------------------------------|




--15-13-15-13----17-15-17-15-15-13-15-13-15-13-15---|
----------------------------------------------------|
----------------------------------------------------|
----------------------------------------------------|
----------------------------------------------------|
----------------------------------------------------|




--15-12-13-12-15-12-13-12-12-13-12-10-12-10-9 ------|
----------------------------------------------------|
----------------------------------------------------|
----------------------------------------------------|
----------------------------------------------------|
----------------------------------------------------|




--9-------------------------|-------|--18 ---------------18b18 --|
--------------------14-15---|--17~--|----------------------------|
-----------------14---------|-------|----------------------------|
----------------------------|-------|----------------------------|
----------------------------|-------|----------------------------|
----------------------------|-------|----------------------------|




--18b---------19b------17---|--20 ---------------20b20 --|
----------------------------|----------------------------|
----------------------------|----------------------------|
----------------------------|----------------------------|
----------------------------|----------------------------|
----------------------------|----------------------------|




--20b---20b------20b--------|--22b------22b--|--22b------22 --|
----------------------------|----------------|----------------|
----------------------------|----------------|----------------|
----------------------------|----------------|----------------|
----------------------------|----------------|----------------|
----------------------------|----------------|----------------|



--22 ---------------22b22-22-22-22-22-22-22-22-22---|

----------------------------------------------------|
----------------------------------------------------|
----------------------------------------------------|
----------------------------------------------------|
----------------------------------------------------|



--21-21-21-21-21-21-21-21-22-22-22-22-21-21-21-21---|

----------------------------------------------------|
----------------------------------------------------|
----------------------------------------------------|
----------------------------------------------------|
----------------------------------------------------|



--21-21-21-21-18-18-18-21-21-18-18-17-17-18-18-17---|

----------------------------------------------------|
----------------------------------------------------|
----------------------------------------------------|
----------------------------------------------------|
----------------------------------------------------|



--17-17-17-18-18-18-17-17-17-15-15-15-17-17-15-15---|

----------------------------------------------------|
----------------------------------------------------|
----------------------------------------------------|
----------------------------------------------------|
----------------------------------------------------|



--13-13-13-15-15-15-13-13-13-13-13-15-15-15-13-13---|

----------------------------------------------------|
----------------------------------------------------|
----------------------------------------------------|
----------------------------------------------------|
----------------------------------------------------|



--13-12-12-12-10-10-10-12-12-10-9--9--9--9--10-10---|

----------------------------------------------------|
----------------------------------------------------|
----------------------------------------------------|
----------------------------------------------------|
----------------------------------------------------|



--13-13-13-15-15-13-13-12-12-13-13-12-12-10-10-10---|

----------------------------------------------------|
----------------------------------------------------|
----------------------------------------------------|
----------------------------------------------------|
----------------------------------------------------|



--12-12-12-10-10-10-9--9--9--9--9--10-10-9--9--9----|

----------------------------------------------------|
----------------------------------------------------|
----------------------------------------------------|
----------------------------------------------------|
----------------------------------------------------|



--10-10-9--9--10-10-9--9--6--6--6--8--8--6--6--5----|

----------------------------------------------------|
----------------------------------------------------|
----------------------------------------------------|
----------------------------------------------------|
----------------------------------------------------|



--5--6--6--5--5-------------------------------------|

----------------------------------------------------|
----------------------------------------------------|
----------------------------------------------------|
----------------------------------------------------|
----------------------------------------------------|




----------------------------|----------------------------|
----------------------------|-----------------------5----|
--7--6-----7--6-----7--6----|-----7--6-----7--6----------|
--------7--------7----------|--7--------7--------7-------|
----------------------------|----------------------------|
----------------------------|----------------------------|




----------------------------|
-----------------5----------|
--6-----7--6--------6-------|
-----7--------7--------7----|
----------------------------|
----------------------------|




-----------------------------------------5----------|
--------------------------------5--6--8-----8--6----|
--7-----------------------6--7----------------------|
----------------------------------------------------|
----------------------------------------------------|
----------------------------------------------------|




-----------------------5----------------------------|
--5-----------5--6--8-----8--6--5-----------5--6----|
-----7--6--7-----------------------7--6--7----------|
----------------------------------------------------|
----------------------------------------------------|
----------------------------------------------------|



--5-----5 ----------------------5~------------------|

-----8--------------------------------10-8----------|
--------------------------------------------9-------|
----------------------------------------------------|
----------------------------------------------------|
----------------------------------------------------|




----------------------------|----------------------------|
--13b---------13b---13b10---|--13b13 ---------------13b--|
----------------------------|----------------------------|
----------------------------|----------------------------|
----------------------------|----------------------------|
----------------------------|----------------------------|




----------------------------|----------------------------|
----------------------------|----------------------------|
----------------------------|----------------------------|
----------------------------|----------------------------|
----------------------------|----------------------------|
--5--0--5--0--3-----0--5----|--0--5--3-----5--0--3-------|




----------------------------|----------------------------|
----------------------------|----------------------------|
----------------------------|----------------------------|
----------------------------|----------------------------|
----------------------------|----------------------------|
--5--0--5--0--3-----0--5----|--0--5--3-----5--0--3-------|




----------------------------|----------------------------|
----------------------------|----------------------------|
----------------------------|----------------------------|
----------------------------|----------------------------|
----------------------------|--------4--------5----------|
--5--0--5--0--3-----0--5----|--0--5----------------------|




----------------------------|----------------------------|-------|-------|
----------------------------|----------------------------|-------|-------|
----------------------------|----------------------------|-------|-------|
----------------------------|----------------------------|-------|-------|
--5--4--5--4--5--4----------|----------------------------|--0 ---|--0 ---|
--------------------5--5 ---|--5-----5--0--3--5--5--0----|-------|-------|



-------|-------|-------|-------|-------|-------|-------|-------|-------|-------|
-------|-------|-------|-------|-------|-------|-------|-------|-------|-------|
-------|-------|-------|-------|-------|-------|-------|-------|-------|-------|
-------|-------|-------|-------|-------|-------|-------|-------|-------|-------|
--0 ---|--0 ---|--0 ---|--0 ---|--0 ---|--0 ---|--0 ---|--0 ---|--0 ---|--0 ---|
-------|-------|-------|-------|-------|-------|-------|-------|-------|-------|


-------|-------|-------|----------|-------||
-------|-------|-------|----------|-------||
-------|-------|-------|----------|-------||
-------|-------|-------|----------|-------||
--0 ---|--0 ---|--0 ---|--0 -0 ---|--0----||
-------|-------|-------|----------|-------||
Texto Colunas
Alterar tom ½ tom ½ tom
afinação acordes na letra esconder tabs mais »

Comentários 50

  • guilherme.junior.94043 guilherme.junior.94043: Postado em 11/05/2014 18:04

    m é palm mute ou abafamento

  • dinricci dinricci: Postado em 20/04/2014 18:36

    5M-0M-5M-0M-3M-5M-0M-5M ? ;x eh tipo de algum Tapping ow oq eh? ;x

  • dinricci dinricci: Postado em 20/04/2014 18:34

    oq sao esses 'M's? alguem sabe me falar? o.O

  • bianca bianca: Postado em 30/03/2014 15:20

    e só falta o vídeo aula

  • joao victor joao victor: Postado em 25/03/2014 20:51

    video aulaaaaaaaaaaaaaaa cade vc???? mesmo assim aprendi kkkk

  • leck12 leck12: Postado em 23/02/2014 10:29

    vamo brincar de fazer video aula do slash ne cifra club

  • luciano luciano: Postado em 12/12/2013 14:12

    cade os acordes? Alguem me passa os acordes da intro.O dedilhado parece facil , com os acordes fica mais facil ,sei que começa com Dm

    • slash555 slash555: Postado em 25/03/2014 11:31

      cara ele a toda tab n tem acorde mais vo pega ela agora e passo pra acorde pra tocaem versao acustica se for isso que tu quer

  • heliabe heliabe: Postado em 01/12/2013 21:32

    so faltava um video aula pra ter mais claresa

  • lucas.lourenco.58 lucas.lourenco.58: Postado em 13/11/2013 15:03

    ja tem a tab e ainda qué video aula
    vsf

Exibindo 10 de 50 comentários Mostrar mais ver todos »
Composição: John Forté / John Stephens / Milton Legey / The Line
Esse não é o compositor? Avise-nos.
Contribuição: GabrieL Correções: Breno Bernardes e mais 1 »
  1. Domingo de Manhã - Marcos e Belutti Manteve-se 101.682 exibições
  2. Pra Você - Onze:20 Manteve-se 49.051 exibições
  3. Até Você Voltar - Henrique e Juliano Manteve-se 48.097 exibições
  4. Logo Eu - Jorge e Mateus Manteve-se 43.779 exibições
  5. Recaídas - Henrique e Juliano Manteve-se 42.217 exibições
  6. Evidências - Chitãozinho & Xororó Manteve-se 38.180 exibições
  7. Só Os Loucos Sabem - Charlie Brown Jr. Manteve-se 32.025 exibições
  8. Give Me Love - Ed Sheeran Manteve-se 29.876 exibições
  9. Pais e Filhos - Legião Urbana Manteve-se 29.142 exibições
  10. Sky Full Of Stars - Coldplay Manteve-se 27.990 exibições
  1. Jorge e Mateus- Manteve-se 260.104 exibições
  2. Legião Urbana- Manteve-se 207.461 exibições
  3. Henrique e Juliano- Manteve-se 179.140 exibições
  4. Charlie Brown Jr.- Manteve-se 152.215 exibições
  5. Bruno e Marrone- Manteve-se 133.114 exibições
  6. Marcos e Belutti- Manteve-se 124.469 exibições
  7. Fernandinho- Manteve-se 118.579 exibições
  8. Luan Santana- Manteve-se 107.717 exibições
  9. Thalles Roberto- Manteve-se 94.507 exibições
  10. Victor e Leo- Manteve-se 92.296 exibições
Exibir acordes »

Cifras e tabs

Fórum Cifra Club

Aprenda

Cifra Club News

Mais Serviços Cifra Club ID

Studio Sol

©1996 - 2014 Cifra Club · o primeiro, maior e mais acessado do Brasil · 337 mil músicas · 6.2 milhões pessoas cadastradas

publicidade
fechar