Back From Cali

Slash

 Slash Compositor: Slash
Tom: B
		
Intro / Verso:

E|--------------------------------------------------------------------------|
B|---------------3--------------------------------5--3---3------------------|
G|-4---2h4-------4--4--2--4p2------1--------------4--2---2---2--------------|
D|-4---4------------4--4--4--------2--------4h6-----------------------------|
A|---------------------------------2---------------------------0------------|
E|--------------------------------------------------------------------------|



E|--------------------------------------------------------------------------|
B|---------------3-----------------0--------------5--3---3------------------|
G|-4---2h4-------4--4--2--4p2-----(1)-------------4--2---2---2--------------|
D|-4---4------------4--4--4--------2--------4h6-----------------------------|
A|-------------------------------------------------------------0------------|
E|--------------------------------------------------------------------------|


Refrão:

E|---------------------------------------------------------------------------|
B|------------------------------------------------------------------------3--|
G|---4----2----4----7----4----2----4----2---------------------------------2--|
D|---4----2----4----7----4----2----4----2----2---2------------2--0---0----0--| (2X)
A|---2----0----2----5----2----0----2----0----2---2---------------------------|
E|-------------------------------------------0---0----2--4-------------------|



E|---------------------------------------------------------------------------|
B|---------------3---------------------------------5-\--3--3-----------------|
G|-----2h4-------4---4--2--4--2------1-------------4-\--2--2--2--------------|
D|-4---4-4-----------4--4--4--4------2------4--6-----------------------------|(2x)
A|-2------------------------------------------------------------0------------|
E|---------------------------------------------------------------------------|


Interludio:

E|---------------------------------------------------------------------------|
B|-0-0-0-0-0-0---3---3---0-0-0-0-0-0---3---3---------------------------------|
G|-1-1-1-1-1-1---2---2---1-1-1-1-1-1---2---2---------------------------------|
D|-2-2-2-2-2-2---0---0---2-2-2-2-2-2---0---0---------------------------------|
A|-2-2-0-2-2-2-----------2-2-2-2-2-2-----------------------------------------|
E|---------------------------------------------------------------------------|



E|---------------------------------------------------------------------------|
B|------------------------------------------------------------------------3--|
G|---4----2----4----7----4----2----4----2---------------------------------2--|
D|---4----2----4----7----4----2----4----2----2---2------------2--0---0----0--| (4X)
A|---2----0----2----5----2----0----2----0----2---2---------------------------|
E|-------------------------------------------0---0----2--4-------------------|


Ponte:

E|-3--3--3-3-----------------------------------------------------------------|
B|-3--3--3-3---2-------------------------------------------------------------|
G|-------------3-2--2--x-x-x-4-4-4-4--4-4---4-4------------------------------|
D|-------------0-2--2--x-x-x-4-4-4-4--4-4---4-4---9--8--7--------------------|(3x)
A|-2--2--2-2-----0--0--x-x-x-2-2-0h2--0h2---0h2---9--8--7--------------------|
E|-3--3--3-3--------------------------------------7--6--5--------------------|



E|---3--3--3-3---------------------------------------------------------------|
B|---3--3--3-3---2-----------------------------------------------------------|
G|---------------3-2-2-2-2-2--------------2-2--2--x-x-x----------------------|
D|---------------0-2-2-2-2-2---4--4--4-4--2-2--2--x-x-x----------------------|
A|---2--2--2-2-----0-0-0-0-0---4--4--4-4--0-0--0--x-x-x----------------------|
E|---3--3--3-3-----------------2--2--2-2-------------------------------------|


Solo:

E|--------------------------------------------------------7\5----------------|
B|-----9b-(9)---9b--9b---9b---------9-9-------------------------7--5---5-----|
G|-----9b-(9)---9b--9b---9b-9----7--9-9---7---7--9--7------------------------|
D|------------------------------------------9----------9---------------------|
A|---------------------------------------------------------------------------|
E|---------------------------------------------------------------------------|



E|----------------------------10---------------------------------------------|
B|-----5h7p5--5---3-------12-------12--16b--r16--15---12-10--15b~~~\0--------|
G|---------------------------------------------------------------------------|
D|---------------------------------------------------------------------------|
A|---------------------------------------------------------------------------|
E|---------------------------------------------------------------------------|



E|--------------19-------------------17--------------------------------------|
B|---17----19b------r19---17--19--17---17--16--------------------------------|
G|---------------------------------------------------------------------------|
D|---------------------------------------------------------------------------|
A|---------------------------------------------------------------------------|
E|---------------------------------------------------------------------------|


Outro:

E|---------------------------------------------------------------------------|
B|---------------3---------------------------------5-\--3--3-----------------|
G|-----2h4-------4---4--2--4--2------1-------------4-\--2--2--2--------------|
D|-4---4-4-----------4--4--4--4------2------4--6-----------------------------|
A|-2------------------------------------------------------------0------------|
E|---------------------------------------------------------------------------|



E|---------------------------------------------------------------------------|
B|----------3----------------------------------5-\--3------------------------|
G|----------4---4--2--4--2------1--------------4-\--2------------------------|
D|-4\12---------4--4--4--4------2------4--6----------------------------------|
A|-2\10----------------------------------------------------------------------|
E|---------------------------------------------------------------------------|



E|---------------------------------------------------------------------------|
B|------------------------------------------------------------------------3--|
G|---4----2----4----7----4----2----4----2---------------------------------2--|
D|---4----2----4----7----4----2----4----2----2---2------------2--0---0----0--| (4X)
A|---2----0----2----5----2----0----2----0----2---2---------------------------|
E|-------------------------------------------0---0----2--4-------------------|


Final:

E|---------------------------------------------------------------------------|
B|---------------------------------------------------------------------------|
G|---4--4--2--4--2--4-----2-4---2-4------------------------------------------|
D|---4--4--2--4--2--4-----2-4---2-4------------------------------------------| (4x)
A|---2--2--0--2--0--2-----0-2---0-2------------------------------------------|
E|---------------------------------------------------------------------------|



E|--3--3--3--3--3--3---3-3-3-------------------------------------------------|
B|--3--3--3--3--3--3---3-3-3-2-----------------------------------------------|
G|---------------------------3-2--2--2--2--2--2---4~~~\0---------------------|
D|---------------------------0-2--2--2--2--2--2---4~~~\0---------------------|
A|--x--x--x--x--x--x---x-x-x---0--0--0--0--0--0---2~~~\0---------------------|
E|--3--3--3--3--3--3---3-3-3-------------------------------------------------|

Comentários 28

  • italo italo: Postado em 30/10/2013 17:45

    mó facil

  • Rafael Rafael: Postado em 20/06/2013 20:30

    pelo amor de deus a musica é tri fácil não é necessário uma video aula

    • Daniel Daniel: Postado em 06/02/2014 23:31

      ui fodão vamo uma x1 então

  • jv.15 jv.15: Postado em 09/10/2012 03:09

    cara quem não soube nem o começo ne é palhaçada .!

  • israelima israelima: Postado em 14/09/2012 12:59

    video aula por favor

  • wellingtonb wellingtonb: Postado em 15/08/2012 22:27

    Por favor um video aula desse solo.....

  • paulinho28 paulinho28: Postado em 14/08/2012 21:15

    Video Aula Por Favor

  • sclinelx sclinelx: Postado em 16/07/2012 11:03

    por favor da a video aula dessa musica gosto muito dela.

  • sclinelx sclinelx: Postado em 28/06/2012 12:53

    eu amo essa musica por favor da a video aula.

  • allisinho allisinho: Postado em 19/06/2012 19:21

    ta errado o solo

Exibindo 10 de 28 comentários Mostrar mais ver todos »
Composição: Slash feat. Myles Kennedy
Esse não é o compositor? Avise-nos.
Contribuição: GustLopesUrbani Correções: aaxeboy , slexinho e mais 4 »
Exibir acordes »
publicidade
fechar