Slash

The Godfather Theme

242.878 exibições
Tom: F#

E|-----------------------------|
B|--15~-14-15-16-15-15---------|
G|-----------------------15~---|
D|-----------------------------|
A|-----------------------------|
E|-----------------------------|


E|-----------------------------|
B|--15~-14-15-16-15--15--------|
G|------------------------14~--|
D|-----------------------------|
A|-----------------------------|
E|-----------------------------|


E|---------------------------------------------------------------|
B|-15~-14-15-18-15-14-15b(16)~------------15b(16)----------------|
G|--------------------------------14b(15)---------14~~~~~--------|
D|---------------------------------------------------------------|
A|---------------------------------------------------------------|
E|---------------------------------------------------------------|


E|---10-13-12-10-13-10-12-10------------|
B|-10--------------------------11-13-10~|
G|--------------------------------------|
D|--------------------------------------|
A|--------------------------------------|
E|--------------------------------------|


E|---10-13-12-10-13-10-12-10------------|
B|-10--------------------------/10-9-8~-|
G|--------------------------------------|
D|--------------------------------------|
A|--------------------------------------|
E|--------------------------------------|


E|-------9-10b------|---------10-9b-----|
B|-----6------------|------6------------|
G|--/8--------------|--/8---------------|
D|------------------|-------------------|
A|------------------|-------------------|
E|------------------|-------------------|


E|------------------------------------------------------|
B|-10--10br---11br---10---10br--------------------------|
G|------------------------------10----------------------|
D|-----------------------------------11--12-------------|
A|------------------------------------------------------|
E|------------------------------------------------------|


E|---10-10-9--8~~----10/12--10----------|
B|-----------------------------11--10~~~|
G|--------------------------------------|
D|--------------------------------------|
A|--------------------------------------|
E|--------------------------------------|


E|--------------------------------------|
B|--10--10-9-8~~------10br--10p8-10~~~~-|
G|--------------------------------------|
D|--------------------------------------|
A|--------------------------------------|
E|--------------------------------------|


E|-12^11^9---12^11-9--13^12^10---/---/--/-------------------------|
B|-----------------------------11--11--11-11-9--11-9--8-9--11-9-8-|
G|----------------------------------------------------------------|
D|----------------------------------------------------------------|
A|----------------------------------------------------------------|
E|----------------------------------------------------------------|


E|-12-11-9--8-9--11-10-9----9-------------------------------------|
B|-----------------------10---10-12-10-9----9----12---------------|
G|---------------------------------------11---11----11-9----9-----|
D|-------------------------------------------------------11---11--|
A|----------------------------------------------------------------|
E|----------------------------------------------------------------|


E|--------------------------------9-10----------------------------|
B|--------13-11-10-13-10-11-10-10---------------------------------|
G|-----10---------------------------------------------------------|
D|-/12------------------------------------------------------------|
A|----------------------------------------------------------------|
E|----------------------------------------------------------------|
    Sabe quem é o compositor? Envie pra gente.Colaboração e revisão:
    • psiutv
    • magaliz
    • rbagatin
    • sleine
    • +14

    Comentários 101

    140 .
    Exibindo 11 de 101 comentários Mostrar mais ver todos »
    140 cancelar
    0:00 / 0:00

    Capítulos

      2 versões de Guitar Proformatodownloadscontribuição
      play/pausefechar subir/descer velocidade
      6ª corda E5ª corda A4ª corda D3ª corda G2ª corda B1ª corda E
        acordes
        publicidad
        fechar
        ok