Raining Blood

Slayer

 Slayer
Tom: D#
Afinação: Eb Ab Db Gb Bb Eb
		
(Guitarras 1&2)   (2x)

E|----------------------------------------------------------------|
B|----------------------------------------------------------------|
G|----------------------------------------------------------------|
D|----------8-9-8------8-7-------7-6------------------------------|
A|-------7----------9---------8-----------------------------------|
E|0-0-0-----------------------------------------------------------|


(Guitarra 2)   (2X)

E|----------------------------------------------------------------|
B|----------------------------------------------------------------|
G|-----------8-9-8------8-7-----7-6-------------------------------|
D|--------7----------9--------8-----------------------------------|
A|----------------------------------------------------------------|
E|-0-0-0----------------------------------------------------------|


  (Duas Guitarras)

E|----------------------------------------------------------------|
B|----------------------------------------------------------------|
G|----------------------------------------------------------------|
D|----------------------------------------------------------------|
A|----------------------------------------------------------------|

E|-000-000-000-000-000-000-000-000-000-000-000-000----------------|

    (4X)

E|----------------------------------------------------------------|
B|----------------------------------------------------------------|
G|----------------------------------------------------------------|
D|----------------3---2-------------------------------------------|
A|------------4-----------3---2-----------------------------------|
E|-0--2---4-------------------------------------------------------|



E|----------------------------------------------------------------|
B|----------------------------------------------------------------|
G|----------------------------------------------------------------|
D|----------------------------------------------------------------|
A|----------------------------------------------------------------|

E|-5-3-2-0-6-4-3-2-0-6-4-3-0---5-3-2-0-6-4-3-2-0-6-4-3-0----------|


E|----------------------------------------------------------------|
B|----------------------------------------------------------------|
G|----------------------------------------------------------------|
D|----------------------------------------------------------------|
A|----------------------------------------------------------------|

E|-5-3-2-0-6-4-3-0-5-2-0-6-4-3-0-5-3-2-0-6-4-3-0-5-3-2-0-6--------|


E|----------------------------------------------------------------|
B|----------------------------------------------------------------|
G|----------------------------------------------------------------|
D|----------------3-----------------------------------------------|
A|----------------1-----------------------------------------------|
E|-4-3-0-5-3-2-0----0-3-5-3-2-0-6-4-3-0-5-3-2-0-6-4-3-0-----------|


    (2X)

E|----------------------------------------------------------------|
B|----------------------------------------------------------------|
G|----------------------------------------------------------------|
D|----------------------------------------------------------------|
A|---------------------5------------8-----------------------------|
E|-5-3-2-0-6-4-3-0-----3------------6-----------------------------|


          (8X)

E|----------------------------------------------------------------|
B|----------------------------------------------------------------|
G|---------------------------------9---8---------------7----------|
D|-------------------------7-------9---8-----------7---7----------|
A|-------------------------7-------7---6-----------7---5----------|
E|-0000000000000000000000--5-------------000000000-5--------------|


          (4X)

E|----------------------------------------------------------------|
B|----------------------------------------------------------------|
G|-------------------------------------888888888888---------------|
D|---------------------------------8-7-888888888888--7--7---------|
A|---------7h10p8-7-8-------7---10-----666666666666--7--7---------|
E|-0-0-0-0------------0-0-0--------------------------5--5---------|


(Rhythm Guitar)  (2X)

E|----------------------------------------------------------------|
B|----------------------------------------------------------------|
G|----------------------------------------------------------------|
D|----------------------------------------------------------------|
A|-2-2--2-2--2-2--2-2--2-2--2-2--2-2--2-2-------------------------|
E|-0-0--0-0--0-0--0-0--0-0--0-0--0-0--0-0-------------------------|
(Lead  Guitar)  (4X)


E|----------------------------------------------------------------|
B|----------------------------------------------------------------|
G|---------10-11-10------10-9-----9-8-----------------------------|
D|-------9------------11--------10--------------------------------|
A|----------------------------------------------------------------|
E|-0-0-0----------------------------------------------------------|
      (Rhythm 2)    (12X)


E|----------------------------------------------------------------|
B|----------------------------------------------------------------|
G|----------------------------------------------------------------|
D|-----------9----------8------------7----------------------------|
A|----7--10-------7--10--------7--10--------7-10-9----------------|
E|-0------------0-----------0------------0------------------------|


         (4X)

E|----------------------------------------------------------------|
B|----------------------------------------------------------------|
G|----------------------------------------------------------------|
D|----------------------------------------------------------------|
A|------5---9-------5---8-------5--7-------5--4-------------------|
E|-0--0-3---7--0--0-3---6--0--0-3--5--0--0-3--2-------------------|



E|----------------------------------------------------------------|
B|----------------------------------------------------------------|
G|----------------------------------------------------------------|
D|----------------------------------------------------------------|
A|----------------------------------------------------------------|

Eb |0000000000000000000000000000000000000000000000000000000000000000|
(Solo)

E|----------------------------------------------------------------|
B|----------------------------------------------------------------|
G|----------------------------------------------------------------|
D|----------------------------------------------------------------|
A|----------------------------------------------------------------|

E|0000000077777777776666666666333333444444444477777777778888------|
Texto Colunas
Alterar tom ½ tom ½ tom
afinação acordes na letra esconder tabs mais »

Comentários 32

  • renuel.cruz.7 renuel.cruz.7: Postado em 13/06/2014 16:47

    música mais do caralho do metal

  • Victoria Victoria: Postado em 11/06/2014 18:44

    Foda!

  • matheus.nicaretta.9 matheus.nicaretta.9: Postado em 11/05/2014 15:50

    Música muito boa, precisa de vídeo-aula.

  • Frederico Frederico: Postado em 02/11/2013 21:12

    este solo não esta meio errado? acho q esta faltando algo nele.. :/

  • Rômulo Rômulo : Postado em 14/10/2013 18:45

    "nossa pelo que eu vi no Guitar Hero pra mim ela era super dificil..."

    kkkkkkkkk o que as "notas" do GH tem a ver com guitarra?

  • matheus.fonseca.5477 matheus.fonseca.5477: Postado em 13/07/2013 10:46

    Feliz dia do Rock \,,/

  • Luis Luis: Postado em 23/06/2013 09:46

    essa música é foda pra caramba,no começo achei q ia ser dificil mais foi mamão com açúcar

  • ricoxicozarco ricoxicozarco: Postado em 12/01/2013 18:11

    video aula por favor

  • davi929 davi929: Postado em 02/01/2013 21:56

    nossa pelo que eu vi no Guitar Hero pra mim ela era super dificil,mais tirei ela de boa

  • otakubsb otakubsb: Postado em 17/12/2012 00:55

    tranquila achei q fosse ser mais dificil

Exibindo 10 de 32 comentários Mostrar mais ver todos »
Composição: Kerry king
Esse não é o compositor? Avise-nos.
Contribuição: junior_curinga
  1. Domingo de Manhã - Marcos e Belutti Manteve-se 101.185 exibições
  2. Logo Eu - Jorge e Mateus Manteve-se 47.672 exibições
  3. Não Vai Voltar - Onze:20 Manteve-se 40.815 exibições
  4. Maus Bocados - Cristiano Araújo Manteve-se 39.771 exibições
  5. Pra Você - Onze:20 Manteve-se 39.760 exibições
  6. Recaídas - Henrique e Juliano Manteve-se 38.818 exibições
  7. É Preciso Saber Viver - Titãs Manteve-se 34.345 exibições
  8. Aonde Quer Que Eu Vá - Os Paralamas do Sucesso Manteve-se 33.730 exibições
  9. Só Os Loucos Sabem - Charlie Brown Jr. Manteve-se 32.572 exibições
  10. Pais e Filhos - Legião Urbana Manteve-se 30.673 exibições
  1. Jorge e Mateus- Manteve-se 288.852 exibições
  2. Legião Urbana- Manteve-se 218.605 exibições
  3. Charlie Brown Jr.- Manteve-se 154.736 exibições
  4. Fernandinho- Manteve-se 125.080 exibições
  5. Marcos e Belutti- Manteve-se 124.867 exibições
  6. Henrique e Juliano- Manteve-se 118.090 exibições
  7. Bruno e Marrone- Manteve-se 108.966 exibições
  8. Onze:20- Manteve-se 104.107 exibições
  9. Luan Santana- Manteve-se 94.621 exibições
  10. Thalles Roberto- Manteve-se 93.884 exibições
Exibir acordes »

Cifras e tabs

Fórum Cifra Club

Aprenda

Cifra Club News

Mais Serviços Cifra Club ID

Studio Sol

©1996 - 2014 Cifra Club · o primeiro, maior e mais acessado do Brasil · 336 mil músicas · 6.2 milhões pessoas cadastradas

publicidade
fechar