Away With You

Slick Shoes

Sem foto do Slick Shoes
Tom: D
		
(intro)     0:00 - 0:34

E|----------------------------------------------------------------|
B|--------0~------------------------------------------------------|
G|--------5~---0~---0~---0~---------------------------------------|
D|--0~----5~---0~---3~---3~---------------------------------------|
A|--7~----3~---3~---3~---3~---------------------------------------|
E|--5~---------5~---1~---5~---------------------------------------|

                    

E|----------------------------------------------------------------|
B|--------0~------------------------------------------------------|
G|--------5~---0~---00---00---------------------------------------|
D|--0~----5~---0~---33---33---------------------------------------|
A|--7~----3~---3~---33---33---------------------------------------|
E|--5~---------5~---11---55------//////////-----------------------|



E|----------------------------------------------------------------|
B|----------------------------------------------------------------|
G|------------55-55-----------------------------------------------|
D|--77-77-----55-55------------------------5----------------------|
A|--77-77-----33-33--3-3-3-5-3-3-3-3-3----------------------------|
E|--55-55---------------------------------------------------------|



E|----------------------------------------------------------------|
B|----------------------------------------------------------------|
G|------------55-55-----------------------------------------------|
D|--77-77-----55-55------------5----------------------------------|
A|--77-77-----33-33----------3---3-3-5-5--------------------------|
E|--55-55-------------5-5-5---------------------------------------|



E|----------------------------------------------------------------|
B|----------------------------------------------------------------|
G|------------55-55-----------------------------------------------|
D|--77-77---55-55------------------------5------------------------|
A|--77-77---33-33--3-3-3-5-3-3-3-3-3------------------------------|
E|--55-55---------------------------------------------------------|



E|----------------------------------------------------------------|
B|----------------------------------------------------------------|
G|------------55-55-----------------------------------------------|
D|--77-77-----55-55------------5----------------------------------|
A|--77-77-----33-33----------3---3-3-5-5--------------------------|
E|--55-55-------------5-5-5---------------------------------------|




E|----------------------------------------------------------------|
B|----------------------------------------------------------------|
G|------------55-55-----------------------------------------------|
D|--77-77---55-55------------------------5------------------------|
A|--77-77---33-33--3-3-3-5-3-3-3-3-3------------------------------|
E|--55-55---------------------------------------------------------|


(pré-refrão)     0:34 - 0:55                                 (2x)

E|-----------------------------------------------------------------|
B|-----------------------------------------------------------------|
G|-----------------------------------------------------------------|
D|------5------5------5-------5------5------5---7---5--------------|
E|-***-3-***-3-***-3-***-3-***-3-***-3---7---5---------------------|
A|-------------------------------------------------5---3-----------|



E|-----------------------------------------------------------------|
B|-----------------------------------------------------------------|
G|-6666-3333-------------------------------------------------------|
D|-6666-3333-3333-5555---------------------------------------------|
A|-4444-1111-3333-5555---------------------------------------------|
E|--------------1111-3333------------------------------------------|
45 exibições

Comentários 0

Composição: D. Thompson / K. Fingers / Manuel España Santaella
Esse não é o compositor? Avise-nos.
Contribuição: saman
Consegui tocarAinda não conseguiram tocar essa música. Seja o primeiro!
    Não consegui tocar
    Exibir acordes »
    publicidade
    fechar