Slipknot

Duality

39.614 exibições
(intro)
|----------------------------------------------------|
|----------------------------------------------------|
|----------------------------------------------------|
|-0-0-0-0-0-0-0-0-0-3-3-3-3-3-3-3-6\1-1-1-1-1-3-1-0--|
 
     
|----------------------------------------------------|
|----------------------------------------------------| 
|----------------------------------------------------|
|-0-0-0-0-0-0-0-0-0-3-3-3-3-3-3-3-6\1-1-1-1-1-3-1-0--|  

(pre-verso)

|----------------------------------|
|----------------------------------|
|------------------------------3*b-|
|-0-0-0---0-0---0-0-0--0-1-0-3-----|


|--------------------------------|
|--------------------------------|
|------------------------------==|
|-0-0-0---0-0---0-0-0--0-1-0-6-1-|


|----------------------------------|
|----------------------------------|
|------------------------------3*b-|
|-0-0-0---0-0---0-0-0--0-1-0-3-----|

|--------------------------------|
|--------------------------------|
|--------------------------------|
|-0-0-0---0-0---0-0-0--0-1-0-6-1-|

(verso)

|----------------------------------------| 
|----------------------------------------|  
|-12>>>----------------------------------|  1x  
|-------7>10>>>>5>>>7>>>3>>>5>>>1>>0>>>>-|
                                              
|-----------------------------------------| 
|-----------------------------------------|  
|-----------------------------------------|  8x
|-12>>>>7>10>>>>5>>>>7>>>3>>>5>>>1>>0>>>>-|

(Pre-Refrão)

|-----------------------------------|
|-----------------------------------|
|-----------------------------------|
|-3-33-333-33-333-33-3-2-2-1-1-0-0--|

(Refrão)
   
|----------------------------------------------------------|
|----------------------------------------------------------| 2x
|-5-3-5-------5-3-5---5-3-----------------------------5555-|
|-------0-0-0-------0------6--3*----6\-1-1-1-1-1-3-1-0-----|  

(Pós Refrão)
|--------------------| 
|--------------------|  
|--------------------|  
|-10\-3--5---1--0----|

(verso)

|-----------------------------------------| 
|-----------------------------------------|  
|-----------------------------------------|  8x
|-12>>>>7>10>>>>5>>>>7>>>3>>>5>>>1>>0>>>>-|

(pre-refrão)

|-----------------------------------|
|-----------------------------------|
|-----------------------------------|
|-3-33-333-33-333-33-3-2-2-1-1-0-0--|

(refrão)

|------------------------------------------------------|
|------------------------------------------------------| 2x
|-5-3-5-------5-3-5---5-3------------------------------|
|-------0-0-0-------0------6--3*----6\-1-1-1-1-1-3-1-0-|  
(ponte riff 1)

|--------------------------|
|--------------------------|      
|-12--5--8--10--12--13--12-| 2x
|--------------------------|

|----------------------------------|
|----------------------------------|
|------------------------------3*b-|
|-0-0-0---0-0---0-0-0--0-1-0-3-----|  


|--------------------------------|
|--------------------------------|
|--------------------------------|
|-0-0-0---0-0---0-0-0--0-1-0-6-1-|

|----------------------------------|
|----------------------------------|
|------------------------------3*b-|
|-0-0-0---0-0---0-0-0--0-1-0-3-----|  

|----------------------------------|
|----------------------------------|
|----------------------------------|
|-0-0-0---0-0---0-0-0--1-666-333-x-|

(ponte riff 2)


|----------------------------------|
|----------------------------------|
|-------------------------------3b-|
|-1-1-1---1-1---1-1-1---1-3-0-3----|

|-----------------------------------|
|-----------------------------------|
|-----------------------------------|
|-1-1-1---1-1---1-1-1---1-3-0-6\-0--|


|----------------------------------|
|----------------------------------|
|-------------------------------3b-|
|-1-1-1---1-1---1-1-1---1-3-0-3----|

|-----------------------------------|
|-----------------------------------|
|-----------------------------------|
|-1-1-1---1-1---1-1-1---1-3-0-6\-0--|

(ponte riff 3)


|------------------------------------------------------------------------------------|
|------------------------------------------------------------------------------------|
|------------------------------------------------------------------------------------|
|-3-33-333-33-333-33-3-2-2-1-1-0-0-0>>>>-3>>-2>>-5>>-3>>-7>>-12>>-7>>-10>>-9>>-5>>>-7|

  
|--------------------------------------------------------------|
|--------------------------------------------------------------| 
|----------5-3-5------5-3-5---5-3------------------------------|
|-10/--0-0------0-0-0-------0-----6--3*----6\-1-1-1-1-1-3-1-0--|  

    
|------------------------------------------------------|
|------------------------------------------------------| 
|-5-3-5-------5-3-5---5-3------------------------------|
|-------0-0-0-------0------6--3*----6\-1-1-1-1-1-3-1-0-|  

|------------------------------------------------|
|------------------------------------------------|      
|-0-12--5--8--10--12--13--12---------------------| 2x
|----------------------------0-3*-6-1-1-1-1-3-1-0|


(refrão)

|--------------------------------|
|--------------------------------|
|----------------------------3b--|
|-0-0-0---0000---0-0--0-1-0-3----| 

(riff 1)

|-------------------------------------------|
|-------------------------------------------|
|-------------------------------------------|
|-0-0-0---0000---0-0-0--0-1-0-666-33331-1-1-|

|------------------------------------|
|------------------------------------|
|----------------------------------3b|
|-0---0--0---0000---0-0-0--0-1-0-3---|

|----------------------------------------|
|----------------------------------------|
|----------------------------------------|
|-0---0--0---0000---0-0-0--0-1-0-666-333-|

|----------------------------------|
|----------------------------------|
|------------------------------3*b-|
|-0-0-0---0000--0-0-0--0-1-0-3-----| 

|--------------------------------|
|--------------------------------|
|--------------------------------|
|-0-0-0---0000--0-0-0--0-1-0-6-1-|
    Composição: SlipknotColaboração e revisão:
    • andre.torquato
    • pedroluca

    Comentários 11

    140 .
    Exibindo 10 de 11 comentários Mostrar mais ver todos »
    140 cancelar
    0:00 / 0:00

    Capítulos

      1 versão de bateria exibições contribuição e correção
      play/pausefechar subir/descer velocidade
      6ª corda E5ª corda A4ª corda D3ª corda G2ª corda B1ª corda E
        acordes
        publicidad
        fechar
        ok