Hino do Gremio

Solo

Sem foto do Solo
Tom: E
		
 Hino do Grêmio

E|---7-------------------------7-----------------------------7----7-9--11-9------|
B|------9-7----7-9-7------------9-7---7-9-7~~---9-10----10-----------------------|
G|-----------9---------8~~-----------9-------------------------------------------|
D|-------------------------------------------------------------------------------|
A|-------------------------------------------------------------------------------|



e|-----------7-9-7-------------------------|
B|--9-10----------7-10-9-------------------|
G|---------------------------9-------------|
D|-----------------------------------------|
A|-----------------------------------------|
E|-----------------------------------------|
57.670 exibições

Comentários 3

  • Deivid Deivid: Postado em 28/09/2013 22:20

    como tudo na vida do gremista, difícil!

  • dudamovich dudamovich: Postado em 13/05/2012 09:10

    amei

  • fabriciowerk fabriciowerk: Postado em 31/07/2011 11:27

    muito bom o dedilhado

Composição: Sabe quem é o compositor? Envie pra gente. Contribuição: Joh Correções: Daniel »
Exibir acordes »
publicidade
fechar