Pode Chorar

Som e Louvor

 Som e Louvor
Tom: F
		
   F                    Gm
    Se a vitória não chegou
                   F    Bb9
    Pode chorar, pode chorar
                          Dm
    Chore aos pés do salvador
                 C9       F
    Pode chorar, pode chorar
      F                   Gm
    O crente não chora em vão
                     F  Bb9
     Deus estende a sua mão
        C9                F  (Riff)
     Meu irmão, pode chorar.

    Riff:


   E|-------------------|
   B|-------------------|
   G|-------------------|
   D|-------------------|
   A|-------------------|
   E|--6-5-3-5-1--------|


     Solo:

  1° Parte


E|----------------------------------------------------------------|
B|---\10-10-10-11-10----------------10----------10----------------|
G|-------------------12-10-10h12-12----12-10-12----12-10-10-------|
D|----------------------------------------------------------------|
A|----------------------------------------------------------------|
E|----------------------------------------------------------------|


  2° Parte


E|----------------------------------------------------------------|
B|---11-11-11-11-10----10~----10-----------10---------------------|
G|------------------12-----12----12-10~-12---12--10~--------------|
D|----------------------------------------------------------------|
A|----------------------------------------------------------------|
E|----------------------------------------------------------------|


  3° Parte


E|---------------------------------------------------------------------------------------------|
B|--10-10-10-11-10----------------------------10-10h11-11-11-10---10--------------11-10--10----|
G|-----------------12-10-10h12-12-10-12-10-12------------------12----12-10h12p10-------12--10--|
D|---------------------------------------------------------------------------------------------|
A|---------------------------------------------------------------------------------------------|
E|---------------------------------------------------------------------------------------------|


      F                                    C9
     Há muito tempo pedindo, orando e buscando
                              Dm             Bb9  Bb Gm
     Mas a tua bênção não chegou, ela não chegou.
     F                                      C9
     Crente quando quer vitória, de joelho chora
                           Dm
    Suplica a vitória ao senhor
                   Bb9   Bb9 Am Gm
    Ele atende o clamor.
     Gm                   Bb9                     C9
    As lágrimas são como frases na presença do senhor
                Dm Dm C9 Gm
    Tem muito valor.
     Gm                 Bb9                   C9
    Pois ele sabe o que cada uma delas quer dizer
                 Dm Dm C9 F
    Eu digo pra você...
     F                  Gm
    Se a vitória não chegou
                  F     Bb9
    Pode chorar, pode chorar
                          Dm
    Chore aos pés do salvador
    Dm           C9     F
    Pode chorar, pode chorar
      F                   Gm
    O crente não chora em vão
                    F  Bb9
    Deus estende a sua mão
        C9             F    (Riff)
    Meu irmão, pode chorar.
27.161 exibições

Comentários 1

  • Victor Victor: Postado em 11/11/2013 13:52

    massa

Exibir acordes »
publicidade
fechar