Futuro Prometido

Sorriso Maroto

 Sorriso Maroto
Tom: G
		
(intro 2x) C G/B Am


E |--7-10-7-10-7---7-10-7-10---------7-8-7-----------------|
B |--------------------------8-10--------------10-8--------|
G |--------------------------------------------------------|
D |--------------------------------------------------------|
A |--------------------------------------------------------|
E |--------------------------------------------------------|



E |--7-10-7-10-7---7-10-7-10---------7-8-7-----------------|
B |--------------------------8-10------------10--8--5--3---!
G |--------------------------------------------------------|
D |--------------------------------------------------------|
A |--------------------------------------------------------|
E |--------------------------------------------------------|


G7+                 D/F#  Em7
 A lua que prometi esta ali
                C9
E o sol só amanhã
     G/B          C/D D7/b9
E a terra aos seus pés
G7+                        D/F# Em7
 A flor que eu te prometi esta ali
                  C9   G/B          Am   C7+  Am7
Guardada pra te dar e você nem sei não vi...
C7+                              G/B
   E o futuro prometido eu vim cobrar
              Am7              C/D
Você jurou me amar e me fazer feliz
            C9           G/B        Am7
Rasguei os planos, foi engano, eu me envolver
 Am G/B           C9      G/B         Am7     C/D
Por um coração cigano, leviano que me fez sofrer

G7+                    D/F#   Em7               C9
A casa que eu prometi está ali esperando o amanhã
                     C/D
Minha vida aos seus pés
G7+                     D/F#   Em7
O anel que eu prometi esta ali
                  C9
Guardado pra te dar...
       G/B  Am D7
E você nem sei não vi
C7+                                    G/B
   E o futuro prometido eu vim cobrar
              Am7              C/D D4/7 D7
Você jurou me amar e me fazer feliz

            C9           G/B        Am7
Rasguei os planos, foi engano, eu me envolver
  Am      G/B        C9      G/B           Am7
Por um coração cigano, leviano que me fez sofrer
            C9           G/B        Am7
Rasguei os planos, foi engano, eu me envolver
  Am      Bm     C9      G/B        Am7     D4/7  D7
Por um coração cigano, leviano que me fez sofrer

	C9                 G/B
Sem magoas seguirei em paz
                                       Am7
Mas não vou dizer não amarei nunca mais
                                 D4/7    D7      E7
Porque o coração, ele é sempre capaz de amar...

(sobe 1 tom)
(repete tudo)
413.951 exibições

Comentários 1

  • laygoferreira laygoferreira: Postado em 11/03/2012 11:25

    mt fácil, e a cifra ta certinha!

Composição: Tatau
Esse não é o compositor? Avise-nos.
Contribuição: tofora1 Correções: junexxx , LeãoNardo e mais 3 »
Exibir acordes »
publicidade
fechar