Star Wars

Marcha Imperial

2.217 exibições
G|-----------------------|--7-7-7-8------------|
D|-------------8-5---8-5-|----------9-5----8-5-|
A|-10-10-10--6-----6-----|---------------6-----|
E|-----------------------|---------------------|


G|---------------9-8-9-----6-5-4-------|
D|----5-5---------------6--------8-7-8-|
A|-------------------------------------|
E|-------------------------------------|


G|------------------7-7------------|
D|----5---8-5--8-5-----------------|
A|--6---6--------------------------|
E|---------------------------------|


G|---------------9-8-9-----6-5-4-------|
D|----5-5---------------6--------8-7-8-|
A|-------------------------------------|
E|-------------------------------------|


G|--------------------------|
D|----5----8-5-----8-5------|
A|--6----6------6-----------|
E|--------------------------|

Comentários 0

conseguiu tocar?

  • Pablo
  • vinicius

covers

Grave um vídeo tocando Marcha Imperial e mande pra gente!

Ex.: http://www.youtube.com/watch?v=0IvSvIwGdwk
ver covers de outras músicas »
0:00 / 0:00

Capítulos

    1 versão de baixoexibiçõescontribuição e correção
    play/pausefechar subir/descer velocidade
    6ª corda E5ª corda A4ª corda D3ª corda G2ª corda B1ª corda E
      acordes
      publicidad
      fechar
      ok