I Wanna Be Adored

The Stone Roses

 The Stone Roses
Tom: G
		
From: Rudbeckianska gymnasiet 
Date: Thu, 07 Dec 95 09:36:46 -800

Transcribed by: Erik Persson

h=hammer-on
p=pull-off
8^9^8=bend up one fret
/=slide up
\=slide down

INTRO:
1:30

e---------------------------------I---------------------------------|
B---------------7-----------------I----------------7----------------|
G---9---7-9-7-9---9-7-9-7h9-7-----I----9---7-9-7-9---9-7h9-7h9-7--9-|
D-9---9-----------------------9---I--9---9--------------------------|
A---------------------------------I---------------------------------|
E---------------------------------I---------------------------------|



e-------------------------------------------------------------------|
B-12p10h12p10h12p10h12p10-------------------------------------------|
G-------------------------11-9--7--7/9--7---------------------------|
D-------------------------------------------------------------------|
A-------------------------------------------------------------------|
E-------------------------------------------------------------------|


VERSE:
A      D         A       D      A
I  don't  have--- to sell my soul he's allready in me :II


G-------------------------------9--------------------7--------------


CHORUS:
                   I wanna be adored

e--------------------------------------------I-I--------------------|
B------------------------------------------*-I-I--------------------|
G-11^12^11-11-9-9-9--7--7--7------7----------I-I--------------------|
D------------------------------9----9--------I-I--------------------|
A------------------------------------------*-I-I--------------------|
E--------------------------------------------I-I--------------------|


MIDDLE:

  D    C               8x    D

e-2-2--0-0-0-------------I-I-2-2-2-2-2-2----------------------------|
B-3-3--1-1-1-1-3-1-0---*-I-I-3-3-3-3-3-3----------------------------|
G-2-2--0-0-0-------------I-I-2-2-2-2-2-2----------------------------|
D-0-0--2-2-2-------------I-I-0-0-0-0-0-0----------------------------|
A------3-3-3-----------*-I-I----------------------------------------|
E------------------------I-I----------------------------------------|


OUTRO:

.I gotta be adored

e-------------------------------------------------7-7-----7-7-------|
B---------------------------------7---------------------------------|
G---------------------9---7-9-7h9---9-7-9-7h9-7h9-----9-9-----9-9\4-|
D-------------------9---9-------------------------------------------|
A-------------------------------------------------------------------|
E-------------------------------------------------------------------|




e-------------------------------------------------------------------|
B----------------7-----------7-----------7--------------------------|
G----9---7-9-7-9---9-7h9-7-9---9-7h9-7-9---9-7h9-9\4----------------|
D--9---9------------------------------------------------------------|
A-------------------------------------------------------------------|
E-------------------------------------------------------------------|


                I wanna be adored
  D   C    D     C                Em

e-2-2-0-0--2--2--0----------------0-----|I I
B-3-3-1-1--3--3--1----------------0-----|I I
G-2-2-0-0--2--2--0----------------0-----|I I
D-0-0-2-2--0--0--2----------------2-----|I I
A-----3-3--------3----------------2-----|I I
E---------------------------------0-----|I I


  EADGBe
A 57
D  57

this is my interpretation of this great song, it's not perfect over
the chorus and the intro but it does the job. if you have any
corrections please send them in.
                erik.

Comentários 0

Composição: Anthony Henderson / Marco Biazzi / Pluto / Ricco / Spineshank / William Marr
Esse não é o compositor? Avise-nos.
Consegui tocarAinda não conseguiram tocar essa música. Seja o primeiro!
    Não consegui tocar
    Exibir acordes »
    publicidade
    fechar