Stone Temple Pilots

Creep

91.955 exibições
Tom: G
Intro 2x: C  B7  Em

Em           C    B7                Em
Forward yesterday, makes me want to stay
Em           C    B7                Em
What they said was real, makes me want to steal
Em           C    B7                Em
Living under house, yes I'm living I'm a mouse
Em           C    B7                Em
All I got is time, got no meaning just a rhyme

G                Am            Em
Take time with a wounded hand, cause It likes to heal
G                Am            Em
Take time with a wounded hand, guess I like to steal
G                Am            C                      D
Take time with a wounded hand, cause it likes to heal,I  like to steal

Refrão:


E|------------------------------------|------------------------------------|
B|------------------------------------|------------------------------------|
G|------------------------------------|------------------------------------|
D|------------------------------0-2---|------------------------------------|
A|-----------------------0-2----------|-----------------------0-1-2--------|
E|---0----2-----3--3------------------|------0---2-----3-3-----------------|



      E
E|---0--------------------------------|------------------------------------|
B|---0--------------------------------|------------------------------------|
G|---0--------------------------------|------------------------------------|
D|---2--------------------------------|------------------------------------|
A|---2--------------------------------|----7p6-----5p4------3p2------------|
E|---0--------------------------------|--------7-------5---------0---------|


Em          C       B7                 Em
Feeling Uninspired, think I'll start a fire
Em          C       B7                 Em
Everybody run, Bobby's got a gun
Em          C       B7                 Em
Think you're kind'a neat, then she tells me I'm a creep
Em          C       B7                 Em
Friends don't mean a thing, guess I'll leave it up to me
    Composição: Robert DeLeo / Scott WeilandColaboração e revisão:
    • João Paulo
    • vitão
    • Millhouse

    Comentários 9

    • Kaio Kaio: Postado em 20/02/2014 12:51

      Estragaram a droga da cifra, pqp...

      • João Paulo João Paulo: Postado em 01/03/2014 02:38

        No que estragaram ?

      • Leelo Leelo: Postado em 24/03/2014 23:57

        Comentário removido

      • Leelo Leelo: Postado em 25/03/2014 00:01

        não é EM é EM7, no lugar de Am é A5

      • Leelo Leelo: Postado em 25/03/2014 00:06

        dedilhado tbm ta errado, é E0-A2-D0-E2-A0-D0-E3-A0-D0-A0-A2-D0-D2, na segunda parte é E0-A2-D0-E2-A0-D0-E3-A0-D0-A0-A1-A2.

    • João Paulo João Paulo: Postado em 11/02/2014 15:11

      O ritmo é duas para baixo , duas para cima , uma pra baixo e outra para cima

    • j.nilo j.nilo: Postado em 23/06/2012 16:50

      essa música é facil e gostosa de se tocar

    • mariogaucho mariogaucho: Postado em 25/04/2012 21:00

      legitima musica de Grunge! introdução muito facil.

      • raneycamisa10 raneycamisa10: Postado em 26/06/2014 22:59

        adoro essa musica, gostosinha cara

    conseguiu tocar?

    • Jennifer
    • vinicius.americo.10
    • Maiara
    • karen.louise.92
    • luiznds
    • roberto.articus
    • jardel_nathan
    • •••

    covers

    Grave um vídeo tocando Creep e mande pra gente!

    Ex.: http://www.youtube.com/watch?v=0IvSvIwGdwk
    ver covers de outras músicas »
    0:00 / 0:00

    Capítulos

      1 versão de baixoexibiçõescontribuição e correção
      1 versão de bateriaexibiçõescontribuição e correção
      4 versões de Guitar Proformatodownloadscontribuição
      play/pausefechar subir/descer velocidade
      6ª corda E5ª corda A4ª corda D3ª corda G2ª corda B1ª corda E
        acordes
        publicidad
        fechar
        ok