Destiny

Stratovarius

 Stratovarius
Tom: G
		
Afinação Eb



Intro:
1º parte - base

e|-------------------------------|------------------------|
B|-------------------------------|------------------------|
G|--------5=---------------------|------------------------|
D|---2=---5=---2=---7=---7/-9=---|---7=---4=-------2===---|
A|---2=---3=---2=---7=---7/-9=---|---7=---4=-------2===---|
E|---0=--------0=---5=---5/-7=---|---5=---2=---2-3-0===---|

  \				/
   \____________(2x)___________/       


2º parte - solo + base

e|-----------------------------------------------------------------------------------|---------------|
B|-10b(12)--10-8-7------12b(13)--12-10-8-------10b(12)--10-8-7-----8b(10)--8-7-5-----|---5---7-8-5=--|
G|-----------------9----------------------11--------------------9----------------8---|---------------|
D|-----------------------------------------------------------------------------------|---------------|
A|-----------------------------------------------------------------------------------|---------------|
E|-----------------------------------------------------------------------------------|---------------|

  \										    /
   \____________________________________(2x)_______________________________________/



Verso:

e|----------------------------------------------------------------------------------------------|
B|----------------------------------------------------------------------------------------------|
G|--------9--9--7----------------------9--9--7----------------------9--9--7---------------5---4-|
D|--2=----9--9--7----------------2=----9--9--7----------------2=----9--9--7---------------5---4-|
A|--2=----7--7--7--12-10-9-10----2=----7--7--7--12-10-9-10----2=----7--7--7--12-10-9-10---3---2-|
E|--0=---------------------------0=---------------------------0=--------------------------------|

*=P.M.          *   *  * *  *                *   *  * *  *                *   *  * *  *

The times are changing so fast
I wonder how long it lasts
The clock is ticking time is running out


e|----------------------------------------------------------------------------------------------|
B|----------------------------------------------------------------------------------------------|
G|--------9--9--7----------------------9--9--7----------------------9--9--7---------------5---4-|
D|--2=----9--9--7----------------2=----9--9--7----------------2=----9--9--7---------------5---4-|
A|--2=----7--7--7--12-10-9-10----2=----7--7--7--12-10-9-10----2=----7--7--7--12-10-9-10---3---2-|
E|--0=---------------------------0=---------------------------0=--------------------------------|

*=P.M.          *   *  * *  *                *   *  * *  *                *   *  * *  *

The hatred fills this Earth
And for what is worth
We're in the end before we know


Pré-Refrão

e|---------------------------------------------------------|
B|---------------------------------------------------------|
G|-------------7=--------------7=----5=-------4=---5=-7=---|
D|---7=---5=---7=-----------7=-7=-5=-5=-7=----4=---5=-7=---|
A|---7=---5=---5=---------2-7=-5=-5=-3=-7=----2=---3=-5=---|
E|---5=---3=--------0-2-4---5=----3=----5=-2=--------------|


Throughout the years
I have struggled to find the answer that
I never knew
It struck me like a million lightnings
And here I am telling to you


Refrão

e|---------------------------------------------------------------------|
B|---------------------------------------------------------------------|
G|-9=--------7=-------4/-5=--------4=---7=--------7=--------4=---5=-/7-|
D|-9=---5=---7=---2=--4/-5=---5=---4=---7=---5=---7=---2=---4=---5=-/7-|
A|-7=---5=---5=---2=--2/-3=---5=---2=---5=---5=---5=---2=---2=---3=-/5-|
E|------3=--------0=----------3=-------------3=--------0=--------------|


Every second of day it is coming your way
Future unknown is here to stay
Got to open your mind
of you will be led to astray
There's a time to live
There's a time to die
But no one can escape the Destiny
 
 /////////////\\\\\\\\\\\\\\
|Repete o solo da introdução|
 \\\\\\\\\\\\\//////////////

Verso:

e|----------------------------------------------------------------------------------------------|
B|----------------------------------------------------------------------------------------------|
G|--------9--9--7----------------------9--9--7----------------------9--9--7---------------5---4-|
D|--2=----9--9--7----------------2=----9--9--7----------------2=----9--9--7---------------5---4-|
A|--2=----7--7--7--12-10-9-10----2=----7--7--7--12-10-9-10----2=----7--7--7--12-10-9-10---3---2-|
E|--0=---------------------------0=---------------------------0=--------------------------------|

*=P.M.          *   *  * *  *                *   *  * *  *                *   *  * *  *

Look all these things we've done
Under the burning Sun
Is this the way to carry on?


e|----------------------------------------------------------------------------------------------|
B|----------------------------------------------------------------------------------------------|
G|--------9--9--7----------------------9--9--7----------------------9--9--7---------------5---4-|
D|--2=----9--9--7----------------2=----9--9--7----------------2=----9--9--7---------------5---4-|
A|--2=----7--7--7--12-10-9-10----2=----7--7--7--12-10-9-10----2=----7--7--7--12-10-9-10---3---2-|
E|--0=---------------------------0=---------------------------0=--------------------------------|

*=P.M.          *   *  * *  *                *   *  * *  *                *   *  * *  *

So take a look at yourself
And tell me what do you see
A wolf in clothes of the Lamb?

Pré-Refrão

e|---------------------------------------------------------|
B|---------------------------------------------------------|
G|-------------7=--------------7=----5=-------4=---5=-7=---|
D|---7=---5=---7=-----------7=-7=-5=-5=-7=----4=---5=-7=---|
A|---7=---5=---5=---------2-7=-5=-5=-3=-7=----2=---3=-5=---|
E|---5=---3=--------0-2-4---5=----3=----5=-2=--------------|


Throughout the years
I have struggled to find the answer that
I never knew
It struck me like a million lightnings
And here I am telling to you


Refrão

e|---------------------------------------------------------------------|
B|---------------------------------------------------------------------|
G|-9=--------7=-------4/-5=--------4=---7=--------7=--------4=---5=-/7-|
D|-9=---5=---7=---2=--4/-5=---5=---4=---7=---5=---7=---2=---4=---5=-/7-|
A|-7=---5=---5=---2=--2/-3=---5=---2=---5=---5=---5=---2=---2=---3=-/5-|
E|------3=--------0=----------3=-------------3=--------0=--------------|


Every second of day it is coming your way
Future unknown is here to stay
Got to open your mind
of you will be led to astray
There's a time to live
There's a time to die
But no one can escape the Destiny


Base da intro + ponte

Ponte:

e|-----------------------------------------------------------|
B|-----------------------------------------------------------|
G|-----------------------------------------------------------|
D|-----------------------------------------------------------|
A|-----------------------------------------------------------|
E|---0--0-0-0--0-0-0--0-0-0--0-0-0--0-0-0--0-0-0--0-0-0--0-0-|

P.M. .  . . .  . . .  . . .  . . .  . . .  . . .  . . .  . .


Solo 1:
(Guitarra e teclado)


e|-----------------------------------------------------------------
B|---12-10-12---12-10-12---12-10-12---12-10-12---10-9-10---10-9-10-
G|-9----------9----------9----------9----------8---------8---------
D|-----------------------------------------------------------------
A|-----------------------------------------------------------------
E|-----------------------------------------------------------------



e|-----------------------------------------------------------------
B|---10-9-10---10-9-10---12-10-12---12-10-12---12-10-12---12-10-12-
G|-8---------8---------9----------9----------9----------9----------
D|----------------------------------------------------------------
A|-----------------------------------------------------------------
E|-----------------------------------------------------------------



e|-------------------------------------------------------------
B|----13-12-13----13-12-13----13-12-13----13-12-13----15-13-15-
G|-11----------11----------11----------11----------12----------
D|-------------------------------------------------------------
A|-------------------------------------------------------------
E|-------------------------------------------------------------



e|-------------------------------------------------------------
B|----15-13-15----15-13-15----15-13-15----13-12-13----13-12-13-
G|-12----------12----------12----------11----------11----------
D|-------------------------------------------------------------
A|-------------------------------------------------------------
E|-------------------------------------------------------------



e|---------------------------------------------------------------------
B|----13-12-13----13-12-13---12-10-12---12-10-12---12-10-12---12-10-12-
G|-11----------11----------9----------9----------9----------9----------
D|---------------------------------------------------------------------
A|---------------------------------------------------------------------
E|---------------------------------------------------------------------



e|-------------------------------------------------------------------
B|---10-8-10---10-8-10---10-8-10---10-8-10---12-12-12-12-13-13-13-13-
G|-8---------8---------8---------8-----------------------------------
D|-------------------------------------------------------------------
A|-------------------------------------------------------------------
E|-------------------------------------------------------------------



e|-11-11-11-11-12-12-12-12-14-14-14-14-15-15-15-15-14-14-14-14-12-12-
B|-------------------------------------------------------------------
G|-------------------------------------------------------------------
D|-------------------------------------------------------------------
A|-------------------------------------------------------------------
E|-------------------------------------------------------------------



e|-12-12-14-14-14-14-12-12-12-12-11-11-11-11-12-12-12-12-11-11-11-11-
B|-------------------------------------------------------------------
G|-------------------------------------------------------------------
D|-------------------------------------------------------------------
A|-------------------------------------------------------------------
E|-------------------------------------------------------------------



e|-------------------------------------|-----------
B|-13-13-13-13-12-12-12-12-10-10-10-10-|-10b(12)=---
G|-------------------------------------|-----------
D|-------------------------------------|-----------        (...)
A|-------------------------------------|-----------
E|-------------------------------------|-----------

                                          

Solo 2:
(solo de guitarra/solo de teclado)

Parte Rítmica:

e|------------------------------------------------------------
B|------------------------------------------------------------
G|------------------------------------------------------------
D|------------------------------------------------------------
A|---2--2-2-2--2-2-2--2-2-2--2-2-2--2-2-2--2-2-2--2-2-2-------
E|------------------------------------------------------5-3-2-

P.M. .  . . .  . . .  . . .  . . .  . . .  . . .  . .


e|--------------------------------------------------------|
B|--------------------------------------------------------|
G|--------------------------------------------------------|
D|--------------------------------------------------------|
A|--------------------------------------------------------|
E|---0--0-0-0--0-0-0--0-0-0--0-0-0--0-0-0--0-0-0--2--3--5-|

P.M. .  . . .  . . .  . . .  . . .  . . .  . . .

*Guitarra base faz a parte rítimica e a guitarra solo faz este solo:


e|------------------------------------------20b(22)=-20-19-17-19-etc.---
B|-5-----8-8-----7-7-10-10-15-15b(17)-15-15-----------------------------
G|---4-4-----4-4---7=-----------------------5=-----------------------4=-
D|-9=--------------7=-----------------------5=-----------------------4=-
A|-9=--------------5=-----------------------3=-----------------------2=-
E|-7=-------------------------------------------------------------------

     
                                 (...)     


e|----------------------------------------------------------------------
B|-5=---7=---8=-------12-13-16-17-17b(19)=-17-17-17=-16-16-16=-13-13-13=
G|----------------------------------------------------------------------
D|-2=---4=---5=---4=---------------2===---------------------------------
A|-2=---4=---5=---4=---------------2===---------------------------------
E|-0=---2=---3=---2=---------------0===---------------------------------

                                   


e|------------------------------------------|
B|--12-12-12=-10-10-10=-8-8-8=-7-7-7=-------|
G|-----------------------------------7-4=---|
D|------------------------------------------|
A|------------------------------------------|
E|------------------------------------------|

                                       

Let your spirit free
Through Window of your Mind
Unchain your Soul from hate
All you need is Faith

I control my life
I am the One
You control your life
But don't forget Your Destiny...


Ponte 2:

e|----------------------------------|
B|----------------------------------|
G|-------4-----4-5---4-5-7-4-5-7/-9-|
D|-4-5-7---5-7-----7----------------|
A|----------------------------------|
E|----------------------------------|


Solo 3:

e|---------------------------------------------------------------------
B|----12-13-15=---15-13-12-----------------8-10-12=---12-10-8----------
G|-------------------------14=-11-----------------------------11=-7----
D|-5=----------------------12=----12=---2=---------------------9=---9=-
A|-5=----------------------12=----------2=---------------------9=------
E|-3=----------------------10=----------0=---------------------7=------



e|-------------------------------------------------------------|-------
B|----5-7-8=---8-7-5--------------------5-7=-8-10=---15b(17)-15|-15=---
G|-5=----------------7=-5-4=---2=-4--5=---7=-------7-----------|-------
D|-5=----------------5=--------7=---10=---7=-------------------|-------
A|-3=----------------5=--------7=---10=---5=-------------------|-------
E|-------------------3=--------5=----8=------------------------|-------

                                                      

Verso final:
                                            {   opcional    }

e|-------------------------------------------------------------
B|-------------------------------------------------------5-7---
G|--------7=--------4=---5=-------------7=---------4-5-7-------
D|---5=---7=---2=---4=---5=---5=---7=---7=---4-5-7-------------
A|---5=---5=---2=---2=---3=---5=---7=---5=---------------------
E|---3=--------0=-------------3=---5=--------------------------



e|-------------------------------------------|----------|
B|-------------------------------------------|----------|
G|--------7=--------4=---5=--------7=---7=---|----------|
D|---5=---7=---2=---4=---5=---5=---7=---7=---|---5===---|
A|---5=---5=---2=---2=---3=---5=---5=---5=---|---5===---|
E|---3=--------0=-------------3=-------------|---3===---|



It's time to say goodbye
I know it will make you cry
You make your Destiny
I know you'll find the way
And outside Sun is bright
That things will be alright
I will be back one day to you
So please Wait For Me
Texto Colunas
Alterar tom ½ tom ½ tom
afinação acordes na letra esconder tabs mais »

Comentários (0)

  1. Tudo Que Você Quiser - Luan Santana Manteve-se 4.902 exibições
  2. Lepo Lepo - Psirico Manteve-se 3.570 exibições
  3. Mozão - Lucas Lucco Manteve-se 3.423 exibições
  4. Logo Eu - Jorge e Mateus Manteve-se 3.029 exibições
  5. Gaveta - Fernando e Sorocaba Manteve-se 2.722 exibições
  6. Só Os Loucos Sabem - Charlie Brown Jr. Manteve-se 2.470 exibições
  7. Pra Você - Onze:20 Manteve-se 2.088 exibições
  8. Tempo Perdido - Legião Urbana Manteve-se 1.989 exibições
  9. Fui Fiel - Gusttavo Lima Manteve-se 1.760 exibições
  10. Na Linha do Tempo - Victor e Leo Manteve-se 1.759 exibições
  1. Jorge e Mateus- Manteve-se 18.170 exibições
  2. Legião Urbana- Manteve-se 16.306 exibições
  3. Luan Santana- Manteve-se 14.644 exibições
  4. Charlie Brown Jr.- Manteve-se 14.217 exibições
  5. Fernandinho- Manteve-se 12.391 exibições
  6. Thalles Roberto- Manteve-se 9.162 exibições
  7. Aline Barros- Manteve-se 9.064 exibições
  8. Católicas- Manteve-se 8.769 exibições
  9. Victor e Leo- Manteve-se 8.687 exibições
  10. Bruno e Marrone- Manteve-se 8.333 exibições
Exibir acordes »

Cifras e tabs

Fórum Cifra Club

Aprenda

Cifra Club News

Mais Serviços Cifra Club ID

Studio Sol

©1996 - 2014 Cifra Club · o primeiro, maior e mais acessado do Brasil · 329 mil músicas · 5.9 milhões pessoas cadastradas

publicidade
fechar