Guile Theme

Street Fighter

 Street Fighter
Tom: C#
		

---11--11-10-10-11-10-11-11-10-10-11-10-11-11-10-10-13-10h11p10--11--11-10-10-11-10-11-11-10---
----------------------------------------------------------------------------------------------
----------------------------------------------------------------------------------------------
----------------------------------------------------------------------------------------------
----------------------------------------------------------------------------------------------
----------------------------------------------------------------------------------------------



-10-11-10-11-11-10-10-13-10h9p10--------------------------------------------4-6-3--3-1------------
---------------------------------------------------10b-10-9-10-----6------5------------3--1---3---
---------------------------------------------10-12-------------7-8------6-------------------------
---------------------------------10-10-12-13--------------------------7---------------------------
--------------------------------------------------------------------------------------------------
--------------------------------------------------------------------------------------------------



----1-3-3-4-1-1-3-4-6---8-10-11-15-13------------------13----10-11-13-15--------------16-15-13-15-
--4-----------------------------------15------13-15-16----13--------------------13-13-------------
------------------------------------------15------------------------------------------------------
--------------------------------------------------------------------------------------------------
--------------------------------------------------------------------------------------------------
--------------------------------------------------------------------------------------------------



----13---11--10--8-------6-6-8-10--11-13-15-16-13-----------------13---------16-15-13-15-13-11------
-------------------8------------------------------15-13-15--15-16---------15-------------------13---
-----------------------------------------------------------------------15----------------------------
----------------------------------------------------------------------------------------------------
----------------------------------------------------------------------------------------------------
----------------------------------------------------------------------------------------------------



--10-11-13---13-15-16-15----------------------------13-15----18-16-15-13-----------------------------
--------------------------15--16----------13-15--16-------13-------------15-16----------------------
---------------------------------17--15-15-------------------------------------17---:{repete--tudo}-- -----------------------------------------------------------------------------------------------------
------------------------------------------------------------------------------------------------------
-----------------------------------------------------------------------------------------------------
-----------------------------------------------------------------------------------------------------



------------------11-11-10-10-11-10-11-11--10-10-11-10-11-10-11-10-13-10h11p10--------------------------
--------------------------------------------------------------------------------12-----------------------
-------------------------------------------------------------------------------------------------------
-------------------------------------------------------------------------------------------------------
-------------------------------------------------------------------------------------------------------
-------------------------------------------------------------------------------------------------------

Comentários 1

Composição: Sabe quem é o compositor? Envie pra gente. Contribuição: robert
Consegui tocarAinda não conseguiram tocar essa música. Seja o primeiro!
    Não consegui tocar
    Exibir acordes »
    publicidade
    fechar